ISO-10303-21;
HEADER;
/* Generated by software containing ST-Developer
 * from STEP Tools, Inc. (www.steptools.com) 
 */

FILE_DESCRIPTION(
/* description */ (''),
/* implementation_level */ '2;1');

FILE_NAME(
/* name */ 
'C:/Users/steve/git/VoronUsers-Noms/printer_mods/Nomsplease/V0_Mods/le
d_mounts/10mm_strip_mount_full.step',
/* time_stamp */ '2020-08-16T12:47:42-04:00',
/* author */ (''),
/* organization */ (''),
/* preprocessor_version */ 'ST-DEVELOPER v18.1',
/* originating_system */ 'Autodesk Translation Framework v9.3.0.1241',
/* authorisation */ '');

FILE_SCHEMA (('AUTOMOTIVE_DESIGN { 1 0 10303 214 3 1 1 }'));
ENDSEC;

DATA;
#10=MECHANICAL_DESIGN_GEOMETRIC_PRESENTATION_REPRESENTATION('',(#13),#555);
#11=SHAPE_REPRESENTATION_RELATIONSHIP('SRR','None',#562,#12);
#12=ADVANCED_BREP_SHAPE_REPRESENTATION('',(#14),#554);
#13=STYLED_ITEM('',(#571),#14);
#14=MANIFOLD_SOLID_BREP('Body1',#294);
#15=FACE_BOUND('',#100,.T.);
#16=FACE_BOUND('',#101,.T.);
#17=FACE_BOUND('',#102,.T.);
#18=FACE_BOUND('',#112,.T.);
#19=FACE_BOUND('',#113,.T.);
#20=FACE_BOUND('',#114,.T.);
#21=PLANE('',#322);
#22=PLANE('',#327);
#23=PLANE('',#328);
#24=PLANE('',#329);
#25=PLANE('',#330);
#26=PLANE('',#331);
#27=PLANE('',#332);
#28=PLANE('',#333);
#29=LINE('',#441,#54);
#30=LINE('',#445,#55);
#31=LINE('',#467,#56);
#32=LINE('',#493,#57);
#33=LINE('',#497,#58);
#34=LINE('',#500,#59);
#35=LINE('',#505,#60);
#36=LINE('',#511,#61);
#37=LINE('',#515,#62);
#38=LINE('',#517,#63);
#39=LINE('',#518,#64);
#40=LINE('',#526,#65);
#41=LINE('',#528,#66);
#42=LINE('',#530,#67);
#43=LINE('',#531,#68);
#44=LINE('',#532,#69);
#45=LINE('',#535,#70);
#46=LINE('',#536,#71);
#47=LINE('',#540,#72);
#48=LINE('',#541,#73);
#49=LINE('',#542,#74);
#50=LINE('',#544,#75);
#51=LINE('',#547,#76);
#52=LINE('',#548,#77);
#53=LINE('',#550,#78);
#54=VECTOR('',#344,1.7);
#55=VECTOR('',#349,10.);
#56=VECTOR('',#350,10.);
#57=VECTOR('',#351,10.);
#58=VECTOR('',#354,10.);
#59=VECTOR('',#357,10.);
#60=VECTOR('',#362,1.7);
#61=VECTOR('',#369,1.7);
#62=VECTOR('',#374,10.);
#63=VECTOR('',#375,10.);
#64=VECTOR('',#376,10.);
#65=VECTOR('',#387,10.);
#66=VECTOR('',#388,10.);
#67=VECTOR('',#389,10.);
#68=VECTOR('',#390,10.);
#69=VECTOR('',#391,10.);
#70=VECTOR('',#394,10.);
#71=VECTOR('',#395,10.);
#72=VECTOR('',#398,10.);
#73=VECTOR('',#399,10.);
#74=VECTOR('',#400,10.);
#75=VECTOR('',#403,10.);
#76=VECTOR('',#406,10.);
#77=VECTOR('',#407,10.);
#78=VECTOR('',#410,10.);
#79=FACE_OUTER_BOUND('',#94,.T.);
#80=FACE_OUTER_BOUND('',#95,.T.);
#81=FACE_OUTER_BOUND('',#96,.T.);
#82=FACE_OUTER_BOUND('',#97,.T.);
#83=FACE_OUTER_BOUND('',#98,.T.);
#84=FACE_OUTER_BOUND('',#99,.T.);
#85=FACE_OUTER_BOUND('',#103,.T.);
#86=FACE_OUTER_BOUND('',#104,.T.);
#87=FACE_OUTER_BOUND('',#105,.T.);
#88=FACE_OUTER_BOUND('',#106,.T.);
#89=FACE_OUTER_BOUND('',#107,.T.);
#90=FACE_OUTER_BOUND('',#108,.T.);
#91=FACE_OUTER_BOUND('',#109,.T.);
#92=FACE_OUTER_BOUND('',#110,.T.);
#93=FACE_OUTER_BOUND('',#111,.T.);
#94=EDGE_LOOP('',(#194,#195));
#95=EDGE_LOOP('',(#196,#197,#198,#199));
#96=EDGE_LOOP('',(#200,#201,#202,#203,#204,#205,#206,#207,#208,#209));
#97=EDGE_LOOP('',(#210,#211,#212,#213));
#98=EDGE_LOOP('',(#214,#215,#216,#217));
#99=EDGE_LOOP('',(#218,#219,#220,#221,#222,#223,#224,#225,#226,#227));
#100=EDGE_LOOP('',(#228));
#101=EDGE_LOOP('',(#229));
#102=EDGE_LOOP('',(#230));
#103=EDGE_LOOP('',(#231,#232));
#104=EDGE_LOOP('',(#233,#234));
#105=EDGE_LOOP('',(#235,#236,#237,#238,#239,#240,#241));
#106=EDGE_LOOP('',(#242,#243,#244,#245));
#107=EDGE_LOOP('',(#246,#247,#248,#249));
#108=EDGE_LOOP('',(#250,#251,#252,#253));
#109=EDGE_LOOP('',(#254,#255,#256,#257));
#110=EDGE_LOOP('',(#258,#259,#260,#261,#262,#263,#264));
#111=EDGE_LOOP('',(#265,#266,#267,#268));
#112=EDGE_LOOP('',(#269));
#113=EDGE_LOOP('',(#270));
#114=EDGE_LOOP('',(#271));
#115=CIRCLE('',#309,2.9);
#116=CIRCLE('',#311,1.7);
#117=CIRCLE('',#312,1.7);
#118=CIRCLE('',#314,7.);
#119=CIRCLE('',#315,7.);
#120=CIRCLE('',#317,1.7);
#121=CIRCLE('',#318,1.7);
#122=CIRCLE('',#320,1.7);
#123=CIRCLE('',#321,1.7);
#124=CIRCLE('',#323,2.89999999999999);
#125=CIRCLE('',#324,2.9);
#126=B_SPLINE_CURVE_WITH_KNOTS('',3,(#417,#418,#419,#420,#421,#422,#423,
#424,#425,#426,#427,#428,#429,#430,#431,#432,#433,#434,#435),
 .UNSPECIFIED.,.F.,.F.,(4,2,2,2,3,2,2,2,4),(-0.442815604078355,-0.332176975112948,
-0.221538346147541,-0.11076917307377,0.,0.11076917307377,0.221538346147541,
0.332176975112948,0.442815604078355),.UNSPECIFIED.);
#127=B_SPLINE_CURVE_WITH_KNOTS('',3,(#447,#448,#449,#450,#451,#452,#453,
#454,#455,#456,#457,#458,#459,#460,#461,#462,#463,#464,#465),
 .UNSPECIFIED.,.F.,.F.,(4,2,2,2,3,2,2,2,4),(-0.442815604078355,-0.332176975112948,
-0.221538346147541,-0.110769173073771,0.,0.110769173073771,0.221538346147541,
0.332176975112948,0.442815604078355),.UNSPECIFIED.);
#128=B_SPLINE_CURVE_WITH_KNOTS('',3,(#469,#470,#471,#472,#473,#474,#475,
#476,#477,#478,#479,#480,#481,#482,#483,#484,#485,#486,#487,#488,#489,#490,
#491),.UNSPECIFIED.,.F.,.F.,(4,2,2,2,2,3,2,2,2,2,4),(-0.444371743998882,
-0.442910275361676,-0.332231881907652,-0.221553488453628,-0.110776744226814,
0.,0.110776744226815,0.221553488453629,0.332231881907653,0.442910275361677,
0.444371743998406),.UNSPECIFIED.);
#129=VERTEX_POINT('',#415);
#130=VERTEX_POINT('',#416);
#131=VERTEX_POINT('',#438);
#132=VERTEX_POINT('',#440);
#133=VERTEX_POINT('',#444);
#134=VERTEX_POINT('',#446);
#135=VERTEX_POINT('',#466);
#136=VERTEX_POINT('',#468);
#137=VERTEX_POINT('',#492);
#138=VERTEX_POINT('',#494);
#139=VERTEX_POINT('',#496);
#140=VERTEX_POINT('',#498);
#141=VERTEX_POINT('',#502);
#142=VERTEX_POINT('',#504);
#143=VERTEX_POINT('',#508);
#144=VERTEX_POINT('',#510);
#145=VERTEX_POINT('',#514);
#146=VERTEX_POINT('',#516);
#147=VERTEX_POINT('',#524);
#148=VERTEX_POINT('',#525);
#149=VERTEX_POINT('',#527);
#150=VERTEX_POINT('',#529);
#151=VERTEX_POINT('',#534);
#152=VERTEX_POINT('',#538);
#153=VERTEX_POINT('',#539);
#154=VERTEX_POINT('',#546);
#155=EDGE_CURVE('',#129,#130,#126,.T.);
#156=EDGE_CURVE('',#130,#129,#115,.T.);
#157=EDGE_CURVE('',#131,#131,#116,.T.);
#158=EDGE_CURVE('',#131,#132,#29,.T.);
#159=EDGE_CURVE('',#132,#132,#117,.T.);
#160=EDGE_CURVE('',#130,#133,#30,.T.);
#161=EDGE_CURVE('',#133,#134,#127,.T.);
#162=EDGE_CURVE('',#134,#135,#31,.T.);
#163=EDGE_CURVE('',#135,#136,#128,.T.);
#164=EDGE_CURVE('',#136,#137,#32,.T.);
#165=EDGE_CURVE('',#138,#137,#118,.T.);
#166=EDGE_CURVE('',#138,#139,#33,.T.);
#167=EDGE_CURVE('',#139,#140,#119,.T.);
#168=EDGE_CURVE('',#140,#129,#34,.T.);
#169=EDGE_CURVE('',#141,#141,#120,.T.);
#170=EDGE_CURVE('',#141,#142,#35,.T.);
#171=EDGE_CURVE('',#142,#142,#121,.T.);
#172=EDGE_CURVE('',#143,#143,#122,.T.);
#173=EDGE_CURVE('',#143,#144,#36,.T.);
#174=EDGE_CURVE('',#144,#144,#123,.T.);
#175=EDGE_CURVE('',#140,#145,#37,.T.);
#176=EDGE_CURVE('',#145,#146,#38,.T.);
#177=EDGE_CURVE('',#137,#146,#39,.T.);
#178=EDGE_CURVE('',#136,#135,#124,.T.);
#179=EDGE_CURVE('',#134,#133,#125,.T.);
#180=EDGE_CURVE('',#147,#148,#40,.T.);
#181=EDGE_CURVE('',#148,#149,#41,.T.);
#182=EDGE_CURVE('',#149,#150,#42,.T.);
#183=EDGE_CURVE('',#150,#138,#43,.T.);
#184=EDGE_CURVE('',#146,#147,#44,.T.);
#185=EDGE_CURVE('',#151,#150,#45,.T.);
#186=EDGE_CURVE('',#151,#139,#46,.T.);
#187=EDGE_CURVE('',#152,#153,#47,.T.);
#188=EDGE_CURVE('',#153,#149,#48,.T.);
#189=EDGE_CURVE('',#152,#148,#49,.T.);
#190=EDGE_CURVE('',#153,#151,#50,.T.);
#191=EDGE_CURVE('',#154,#147,#51,.T.);
#192=EDGE_CURVE('',#154,#145,#52,.T.);
#193=EDGE_CURVE('',#152,#154,#53,.T.);
#194=ORIENTED_EDGE('',*,*,#155,.F.);
#195=ORIENTED_EDGE('',*,*,#156,.F.);
#196=ORIENTED_EDGE('',*,*,#157,.F.);
#197=ORIENTED_EDGE('',*,*,#158,.T.);
#198=ORIENTED_EDGE('',*,*,#159,.F.);
#199=ORIENTED_EDGE('',*,*,#158,.F.);
#200=ORIENTED_EDGE('',*,*,#155,.T.);
#201=ORIENTED_EDGE('',*,*,#160,.T.);
#202=ORIENTED_EDGE('',*,*,#161,.T.);
#203=ORIENTED_EDGE('',*,*,#162,.T.);
#204=ORIENTED_EDGE('',*,*,#163,.T.);
#205=ORIENTED_EDGE('',*,*,#164,.T.);
#206=ORIENTED_EDGE('',*,*,#165,.F.);
#207=ORIENTED_EDGE('',*,*,#166,.T.);
#208=ORIENTED_EDGE('',*,*,#167,.T.);
#209=ORIENTED_EDGE('',*,*,#168,.T.);
#210=ORIENTED_EDGE('',*,*,#169,.F.);
#211=ORIENTED_EDGE('',*,*,#170,.T.);
#212=ORIENTED_EDGE('',*,*,#171,.F.);
#213=ORIENTED_EDGE('',*,*,#170,.F.);
#214=ORIENTED_EDGE('',*,*,#172,.F.);
#215=ORIENTED_EDGE('',*,*,#173,.T.);
#216=ORIENTED_EDGE('',*,*,#174,.F.);
#217=ORIENTED_EDGE('',*,*,#173,.F.);
#218=ORIENTED_EDGE('',*,*,#168,.F.);
#219=ORIENTED_EDGE('',*,*,#175,.T.);
#220=ORIENTED_EDGE('',*,*,#176,.T.);
#221=ORIENTED_EDGE('',*,*,#177,.F.);
#222=ORIENTED_EDGE('',*,*,#164,.F.);
#223=ORIENTED_EDGE('',*,*,#178,.T.);
#224=ORIENTED_EDGE('',*,*,#162,.F.);
#225=ORIENTED_EDGE('',*,*,#179,.T.);
#226=ORIENTED_EDGE('',*,*,#160,.F.);
#227=ORIENTED_EDGE('',*,*,#156,.T.);
#228=ORIENTED_EDGE('',*,*,#159,.T.);
#229=ORIENTED_EDGE('',*,*,#169,.T.);
#230=ORIENTED_EDGE('',*,*,#172,.T.);
#231=ORIENTED_EDGE('',*,*,#161,.F.);
#232=ORIENTED_EDGE('',*,*,#179,.F.);
#233=ORIENTED_EDGE('',*,*,#163,.F.);
#234=ORIENTED_EDGE('',*,*,#178,.F.);
#235=ORIENTED_EDGE('',*,*,#180,.T.);
#236=ORIENTED_EDGE('',*,*,#181,.T.);
#237=ORIENTED_EDGE('',*,*,#182,.T.);
#238=ORIENTED_EDGE('',*,*,#183,.T.);
#239=ORIENTED_EDGE('',*,*,#165,.T.);
#240=ORIENTED_EDGE('',*,*,#177,.T.);
#241=ORIENTED_EDGE('',*,*,#184,.T.);
#242=ORIENTED_EDGE('',*,*,#166,.F.);
#243=ORIENTED_EDGE('',*,*,#183,.F.);
#244=ORIENTED_EDGE('',*,*,#185,.F.);
#245=ORIENTED_EDGE('',*,*,#186,.T.);
#246=ORIENTED_EDGE('',*,*,#187,.T.);
#247=ORIENTED_EDGE('',*,*,#188,.T.);
#248=ORIENTED_EDGE('',*,*,#181,.F.);
#249=ORIENTED_EDGE('',*,*,#189,.F.);
#250=ORIENTED_EDGE('',*,*,#190,.T.);
#251=ORIENTED_EDGE('',*,*,#185,.T.);
#252=ORIENTED_EDGE('',*,*,#182,.F.);
#253=ORIENTED_EDGE('',*,*,#188,.F.);
#254=ORIENTED_EDGE('',*,*,#191,.T.);
#255=ORIENTED_EDGE('',*,*,#184,.F.);
#256=ORIENTED_EDGE('',*,*,#176,.F.);
#257=ORIENTED_EDGE('',*,*,#192,.F.);
#258=ORIENTED_EDGE('',*,*,#193,.T.);
#259=ORIENTED_EDGE('',*,*,#192,.T.);
#260=ORIENTED_EDGE('',*,*,#175,.F.);
#261=ORIENTED_EDGE('',*,*,#167,.F.);
#262=ORIENTED_EDGE('',*,*,#186,.F.);
#263=ORIENTED_EDGE('',*,*,#190,.F.);
#264=ORIENTED_EDGE('',*,*,#187,.F.);
#265=ORIENTED_EDGE('',*,*,#191,.F.);
#266=ORIENTED_EDGE('',*,*,#193,.F.);
#267=ORIENTED_EDGE('',*,*,#189,.T.);
#268=ORIENTED_EDGE('',*,*,#180,.F.);
#269=ORIENTED_EDGE('',*,*,#157,.T.);
#270=ORIENTED_EDGE('',*,*,#171,.T.);
#271=ORIENTED_EDGE('',*,*,#174,.T.);
#272=CYLINDRICAL_SURFACE('',#308,2.9);
#273=CYLINDRICAL_SURFACE('',#310,1.7);
#274=CYLINDRICAL_SURFACE('',#313,7.);
#275=CYLINDRICAL_SURFACE('',#316,1.7);
#276=CYLINDRICAL_SURFACE('',#319,1.7);
#277=CYLINDRICAL_SURFACE('',#325,2.9);
#278=CYLINDRICAL_SURFACE('',#326,2.89999999999999);
#279=ADVANCED_FACE('',(#79),#272,.F.);
#280=ADVANCED_FACE('',(#80),#273,.F.);
#281=ADVANCED_FACE('',(#81),#274,.F.);
#282=ADVANCED_FACE('',(#82),#275,.F.);
#283=ADVANCED_FACE('',(#83),#276,.F.);
#284=ADVANCED_FACE('',(#84,#15,#16,#17),#21,.T.);
#285=ADVANCED_FACE('',(#85),#277,.F.);
#286=ADVANCED_FACE('',(#86),#278,.F.);
#287=ADVANCED_FACE('',(#87),#22,.T.);
#288=ADVANCED_FACE('',(#88),#23,.T.);
#289=ADVANCED_FACE('',(#89),#24,.T.);
#290=ADVANCED_FACE('',(#90),#25,.T.);
#291=ADVANCED_FACE('',(#91),#26,.T.);
#292=ADVANCED_FACE('',(#92),#27,.T.);
#293=ADVANCED_FACE('',(#93,#18,#19,#20),#28,.F.);
#294=CLOSED_SHELL('',(#279,#280,#281,#282,#283,#284,#285,#286,#287,#288,
#289,#290,#291,#292,#293));
#295=DERIVED_UNIT_ELEMENT(#297,1.);
#296=DERIVED_UNIT_ELEMENT(#557,3.);
#297=(
MASS_UNIT()
NAMED_UNIT(*)
SI_UNIT(.KILO.,.GRAM.)
);
#298=DERIVED_UNIT((#295,#296));
#299=MEASURE_REPRESENTATION_ITEM('density measure',
POSITIVE_RATIO_MEASURE(7850.),#298);
#300=PROPERTY_DEFINITION_REPRESENTATION(#305,#302);
#301=PROPERTY_DEFINITION_REPRESENTATION(#306,#303);
#302=REPRESENTATION('material name',(#304),#554);
#303=REPRESENTATION('density',(#299),#554);
#304=DESCRIPTIVE_REPRESENTATION_ITEM('Steel','Steel');
#305=PROPERTY_DEFINITION('material property','material name',#564);
#306=PROPERTY_DEFINITION('material property','density of part',#564);
#307=AXIS2_PLACEMENT_3D('placement',#413,#334,#335);
#308=AXIS2_PLACEMENT_3D('',#414,#336,#337);
#309=AXIS2_PLACEMENT_3D('',#436,#338,#339);
#310=AXIS2_PLACEMENT_3D('',#437,#340,#341);
#311=AXIS2_PLACEMENT_3D('',#439,#342,#343);
#312=AXIS2_PLACEMENT_3D('',#442,#345,#346);
#313=AXIS2_PLACEMENT_3D('',#443,#347,#348);
#314=AXIS2_PLACEMENT_3D('',#495,#352,#353);
#315=AXIS2_PLACEMENT_3D('',#499,#355,#356);
#316=AXIS2_PLACEMENT_3D('',#501,#358,#359);
#317=AXIS2_PLACEMENT_3D('',#503,#360,#361);
#318=AXIS2_PLACEMENT_3D('',#506,#363,#364);
#319=AXIS2_PLACEMENT_3D('',#507,#365,#366);
#320=AXIS2_PLACEMENT_3D('',#509,#367,#368);
#321=AXIS2_PLACEMENT_3D('',#512,#370,#371);
#322=AXIS2_PLACEMENT_3D('',#513,#372,#373);
#323=AXIS2_PLACEMENT_3D('',#519,#377,#378);
#324=AXIS2_PLACEMENT_3D('',#520,#379,#380);
#325=AXIS2_PLACEMENT_3D('',#521,#381,#382);
#326=AXIS2_PLACEMENT_3D('',#522,#383,#384);
#327=AXIS2_PLACEMENT_3D('',#523,#385,#386);
#328=AXIS2_PLACEMENT_3D('',#533,#392,#393);
#329=AXIS2_PLACEMENT_3D('',#537,#396,#397);
#330=AXIS2_PLACEMENT_3D('',#543,#401,#402);
#331=AXIS2_PLACEMENT_3D('',#545,#404,#405);
#332=AXIS2_PLACEMENT_3D('',#549,#408,#409);
#333=AXIS2_PLACEMENT_3D('',#551,#411,#412);
#334=DIRECTION('axis',(0.,0.,1.));
#335=DIRECTION('refdir',(1.,0.,0.));
#336=DIRECTION('center_axis',(0.,0.,1.));
#337=DIRECTION('ref_axis',(-1.,0.,0.));
#338=DIRECTION('center_axis',(0.,0.,1.));
#339=DIRECTION('ref_axis',(-1.,0.,0.));
#340=DIRECTION('center_axis',(0.,0.,1.));
#341=DIRECTION('ref_axis',(-1.,0.,0.));
#342=DIRECTION('center_axis',(0.,0.,1.));
#343=DIRECTION('ref_axis',(-1.,0.,0.));
#344=DIRECTION('',(0.,0.,1.));
#345=DIRECTION('center_axis',(0.,0.,-1.));
#346=DIRECTION('ref_axis',(-1.,0.,0.));
#347=DIRECTION('center_axis',(1.,0.,0.));
#348=DIRECTION('ref_axis',(0.,-0.537299608346824,-0.843391445812885));
#349=DIRECTION('',(-1.,0.,0.));
#350=DIRECTION('',(-1.,0.,0.));
#351=DIRECTION('',(-1.,0.,0.));
#352=DIRECTION('center_axis',(1.,0.,0.));
#353=DIRECTION('ref_axis',(0.,-0.537299608346824,-0.843391445812885));
#354=DIRECTION('',(1.,0.,0.));
#355=DIRECTION('center_axis',(1.,0.,0.));
#356=DIRECTION('ref_axis',(0.,-0.537299608346824,-0.843391445812885));
#357=DIRECTION('',(-1.,0.,0.));
#358=DIRECTION('center_axis',(0.,0.,-1.));
#359=DIRECTION('ref_axis',(-1.,0.,0.));
#360=DIRECTION('center_axis',(0.,0.,-1.));
#361=DIRECTION('ref_axis',(-1.,0.,0.));
#362=DIRECTION('',(0.,0.,-1.));
#363=DIRECTION('center_axis',(0.,0.,1.));
#364=DIRECTION('ref_axis',(-1.,0.,0.));
#365=DIRECTION('center_axis',(0.,0.,-1.));
#366=DIRECTION('ref_axis',(-1.,0.,0.));
#367=DIRECTION('center_axis',(0.,0.,-1.));
#368=DIRECTION('ref_axis',(-1.,0.,0.));
#369=DIRECTION('',(0.,0.,-1.));
#370=DIRECTION('center_axis',(0.,0.,1.));
#371=DIRECTION('ref_axis',(-1.,0.,0.));
#372=DIRECTION('center_axis',(0.,0.,1.));
#373=DIRECTION('ref_axis',(1.,0.,0.));
#374=DIRECTION('',(0.,1.,0.));
#375=DIRECTION('',(-1.,0.,0.));
#376=DIRECTION('',(0.,1.,0.));
#377=DIRECTION('center_axis',(0.,0.,1.));
#378=DIRECTION('ref_axis',(-1.,0.,0.));
#379=DIRECTION('center_axis',(0.,0.,1.));
#380=DIRECTION('ref_axis',(-1.,0.,0.));
#381=DIRECTION('center_axis',(0.,0.,1.));
#382=DIRECTION('ref_axis',(-1.,0.,0.));
#383=DIRECTION('center_axis',(0.,0.,1.));
#384=DIRECTION('ref_axis',(-6.12323399573677E-17,-1.,0.));
#385=DIRECTION('center_axis',(-1.,0.,0.));
#386=DIRECTION('ref_axis',(0.,-1.,0.));
#387=DIRECTION('',(0.,-1.,0.));
#388=DIRECTION('',(0.,-0.422618261740699,0.90630778703665));
#389=DIRECTION('',(0.,0.90630778703665,0.422618261740699));
#390=DIRECTION('',(0.,0.422618261740699,-0.90630778703665));
#391=DIRECTION('',(0.,0.,-1.));
#392=DIRECTION('center_axis',(0.,0.90630778703665,0.422618261740699));
#393=DIRECTION('ref_axis',(0.,0.422618261740699,-0.90630778703665));
#394=DIRECTION('',(-1.,0.,0.));
#395=DIRECTION('',(0.,0.422618261740699,-0.90630778703665));
#396=DIRECTION('center_axis',(0.,-0.90630778703665,-0.422618261740699));
#397=DIRECTION('ref_axis',(0.,-0.422618261740699,0.90630778703665));
#398=DIRECTION('',(0.,-0.422618261740699,0.90630778703665));
#399=DIRECTION('',(-1.,0.,0.));
#400=DIRECTION('',(-1.,0.,0.));
#401=DIRECTION('center_axis',(0.,-0.422618261740699,0.90630778703665));
#402=DIRECTION('ref_axis',(0.,0.90630778703665,0.422618261740699));
#403=DIRECTION('',(0.,0.90630778703665,0.422618261740699));
#404=DIRECTION('center_axis',(0.,1.,0.));
#405=DIRECTION('ref_axis',(-1.,0.,0.));
#406=DIRECTION('',(-1.,0.,0.));
#407=DIRECTION('',(0.,0.,1.));
#408=DIRECTION('center_axis',(1.,0.,0.));
#409=DIRECTION('ref_axis',(0.,1.,0.));
#410=DIRECTION('',(0.,1.,0.));
#411=DIRECTION('center_axis',(0.,0.,1.));
#412=DIRECTION('ref_axis',(1.,0.,0.));
#413=CARTESIAN_POINT('',(0.,0.,0.));
#414=CARTESIAN_POINT('Origin',(0.,6.37070260807493,3.));
#415=CARTESIAN_POINT('',(2.9,6.37070260807493,3.));
#416=CARTESIAN_POINT('',(-2.9,6.37070260807493,3.));
#417=CARTESIAN_POINT('Ctrl Pts',(2.9,6.37070260807493,3.));
#418=CARTESIAN_POINT('Ctrl Pts',(2.9,6.00190717819024,3.));
#419=CARTESIAN_POINT('Ctrl Pts',(2.8253958681525,5.61145834296212,3.03192492044418));
#420=CARTESIAN_POINT('Ctrl Pts',(2.52801848315659,4.89814159870748,3.14711110388459));
#421=CARTESIAN_POINT('Ctrl Pts',(2.30547481701642,4.57495809420938,3.22900631631235));
#422=CARTESIAN_POINT('Ctrl Pts',(1.79544379481041,4.06492707200337,3.38527243383021));
#423=CARTESIAN_POINT('Ctrl Pts',(1.47237261921511,3.84261058661099,3.47048134544987));
#424=CARTESIAN_POINT('Ctrl Pts',(0.759499784298992,3.54540826440126,3.59347387936499));
#425=CARTESIAN_POINT('Ctrl Pts',(0.369230576912568,3.47070260807493,3.62897182552141));
#426=CARTESIAN_POINT('Ctrl Pts',(0.,3.47070260807493,3.62897182552141));
#427=CARTESIAN_POINT('Ctrl Pts',(-0.369230576912568,3.47070260807493,3.62897182552141));
#428=CARTESIAN_POINT('Ctrl Pts',(-0.759499784298992,3.54540826440126,3.59347387936499));
#429=CARTESIAN_POINT('Ctrl Pts',(-1.47237261921511,3.84261058661099,3.47048134544987));
#430=CARTESIAN_POINT('Ctrl Pts',(-1.79544379481041,4.06492707200337,3.38527243383021));
#431=CARTESIAN_POINT('Ctrl Pts',(-2.30547481701642,4.57495809420937,3.22900631631235));
#432=CARTESIAN_POINT('Ctrl Pts',(-2.52801848315659,4.89814159870748,3.14711110388459));
#433=CARTESIAN_POINT('Ctrl Pts',(-2.8253958681525,5.61145834296212,3.03192492044417));
#434=CARTESIAN_POINT('Ctrl Pts',(-2.9,6.00190717819024,3.));
#435=CARTESIAN_POINT('Ctrl Pts',(-2.9,6.37070260807493,3.));
#436=CARTESIAN_POINT('Origin',(0.,6.37070260807493,3.));
#437=CARTESIAN_POINT('Origin',(0.,6.37070260807493,3.));
#438=CARTESIAN_POINT('',(1.7,6.37070260807493,0.));
#439=CARTESIAN_POINT('Origin',(0.,6.37070260807493,0.));
#440=CARTESIAN_POINT('',(1.7,6.37070260807493,3.));
#441=CARTESIAN_POINT('',(1.7,6.37070260807493,3.));
#442=CARTESIAN_POINT('Origin',(0.,6.37070260807493,3.));
#443=CARTESIAN_POINT('Origin',(15.,6.37070260807493,10.));
#444=CARTESIAN_POINT('',(-65.1,6.37070260807493,3.));
#445=CARTESIAN_POINT('',(15.,6.37070260807493,3.));
#446=CARTESIAN_POINT('',(-70.9,6.37070260807493,3.));
#447=CARTESIAN_POINT('Ctrl Pts',(-65.1,6.37070260807493,3.));
#448=CARTESIAN_POINT('Ctrl Pts',(-65.1,6.00190717819024,3.));
#449=CARTESIAN_POINT('Ctrl Pts',(-65.1746041318475,5.61145834296211,3.03192492044417));
#450=CARTESIAN_POINT('Ctrl Pts',(-65.4719815168434,4.89814159870747,3.14711110388459));
#451=CARTESIAN_POINT('Ctrl Pts',(-65.6945251829836,4.57495809420937,3.22900631631235));
#452=CARTESIAN_POINT('Ctrl Pts',(-66.2045562051896,4.06492707200337,3.38527243383022));
#453=CARTESIAN_POINT('Ctrl Pts',(-66.5276273807849,3.84261058661098,3.47048134544987));
#454=CARTESIAN_POINT('Ctrl Pts',(-67.240500215701,3.54540826440125,3.59347387936499));
#455=CARTESIAN_POINT('Ctrl Pts',(-67.6307694230874,3.47070260807493,3.62897182552141));
#456=CARTESIAN_POINT('Ctrl Pts',(-68.,3.47070260807493,3.62897182552141));
#457=CARTESIAN_POINT('Ctrl Pts',(-68.3692305769126,3.47070260807493,3.62897182552141));
#458=CARTESIAN_POINT('Ctrl Pts',(-68.759499784299,3.54540826440125,3.59347387936499));
#459=CARTESIAN_POINT('Ctrl Pts',(-69.4723726192151,3.84261058661098,3.47048134544987));
#460=CARTESIAN_POINT('Ctrl Pts',(-69.7954437948104,4.06492707200337,3.38527243383022));
#461=CARTESIAN_POINT('Ctrl Pts',(-70.3054748170164,4.57495809420937,3.22900631631235));
#462=CARTESIAN_POINT('Ctrl Pts',(-70.5280184831566,4.89814159870748,3.14711110388459));
#463=CARTESIAN_POINT('Ctrl Pts',(-70.8253958681525,5.61145834296212,3.03192492044418));
#464=CARTESIAN_POINT('Ctrl Pts',(-70.9,6.00190717819024,3.));
#465=CARTESIAN_POINT('Ctrl Pts',(-70.9,6.37070260807493,3.));
#466=CARTESIAN_POINT('',(-133.100038909115,6.37070260807493,3.));
#467=CARTESIAN_POINT('',(15.,6.37070260807493,3.));
#468=CARTESIAN_POINT('',(-138.899965144001,6.37070260807493,3.));
#469=CARTESIAN_POINT('Ctrl Pts',(-133.100038909115,6.37070260807493,3.));
#470=CARTESIAN_POINT('Ctrl Pts',(-133.100014301869,6.36582359081176,3.));
#471=CARTESIAN_POINT('Ctrl Pts',(-133.100002026558,6.36094824183812,3.00000510111208));
#472=CARTESIAN_POINT('Ctrl Pts',(-133.100002026558,5.98714951747625,3.00078612415821));
#473=CARTESIAN_POINT('Ctrl Pts',(-133.174654009681,5.59663877003078,3.0335481996909));
#474=CARTESIAN_POINT('Ctrl Pts',(-133.472111041329,4.88328877389884,3.15031200881707));
#475=CARTESIAN_POINT('Ctrl Pts',(-133.694684076733,4.56013024891593,3.23294991434952));
#476=CARTESIAN_POINT('Ctrl Pts',(-134.204689836743,4.05021468178318,3.39041594345514));
#477=CARTESIAN_POINT('Ctrl Pts',(-134.527698347854,3.82795145311517,3.47617283080321));
#478=CARTESIAN_POINT('Ctrl Pts',(-135.240490534807,3.53079170185178,3.59993653459536));
#479=CARTESIAN_POINT('Ctrl Pts',(-135.630746212469,3.45607669034792,3.63564961997582));
#480=CARTESIAN_POINT('Ctrl Pts',(-136.000002026558,3.45607669034792,3.63564961997582));
#481=CARTESIAN_POINT('Ctrl Pts',(-136.369257840647,3.45607669034792,3.63564961997582));
#482=CARTESIAN_POINT('Ctrl Pts',(-136.759513518309,3.53079170185178,3.59993653459536));
#483=CARTESIAN_POINT('Ctrl Pts',(-137.472305705262,3.82795145311516,3.47617283080321));
#484=CARTESIAN_POINT('Ctrl Pts',(-137.795314216373,4.05021468178318,3.39041594345514));
#485=CARTESIAN_POINT('Ctrl Pts',(-138.305319976382,4.56013024891593,3.23294991434952));
#486=CARTESIAN_POINT('Ctrl Pts',(-138.527893011787,4.88328877389885,3.15031200881707));
#487=CARTESIAN_POINT('Ctrl Pts',(-138.825350043435,5.59663877003078,3.0335481996909));
#488=CARTESIAN_POINT('Ctrl Pts',(-138.900002026558,5.98714951747626,3.00078612415821));
#489=CARTESIAN_POINT('Ctrl Pts',(-138.900002026558,6.36094824183653,3.00000510111209));
#490=CARTESIAN_POINT('Ctrl Pts',(-138.899989751247,6.36582359081019,3.));
#491=CARTESIAN_POINT('Ctrl Pts',(-138.899965144001,6.37070260807493,3.));
#492=CARTESIAN_POINT('',(-156.,6.37070260807493,3.));
#493=CARTESIAN_POINT('',(15.,6.37070260807493,3.));
#494=CARTESIAN_POINT('',(-156.,0.0265480988183819,7.04167216781511));
#495=CARTESIAN_POINT('Origin',(-156.,6.37070260807493,10.));
#496=CARTESIAN_POINT('',(20.,0.0265480988183814,7.04167216781511));
#497=CARTESIAN_POINT('',(15.,0.0265480988183819,7.04167216781511));
#498=CARTESIAN_POINT('',(20.,6.37070260807493,3.));
#499=CARTESIAN_POINT('Origin',(20.,6.37070260807493,10.));
#500=CARTESIAN_POINT('',(15.,6.37070260807493,3.));
#501=CARTESIAN_POINT('Origin',(-136.000002026558,6.35607669034791,3.));
#502=CARTESIAN_POINT('',(-134.300002026558,6.35607669034791,3.));
#503=CARTESIAN_POINT('Origin',(-136.000002026558,6.35607669034791,3.));
#504=CARTESIAN_POINT('',(-134.300002026558,6.35607669034791,0.));
#505=CARTESIAN_POINT('',(-134.300002026558,6.35607669034791,3.));
#506=CARTESIAN_POINT('Origin',(-136.000002026558,6.35607669034791,0.));
#507=CARTESIAN_POINT('Origin',(-68.,6.37070260807493,3.));
#508=CARTESIAN_POINT('',(-66.3,6.37070260807493,3.));
#509=CARTESIAN_POINT('Origin',(-68.,6.37070260807493,3.));
#510=CARTESIAN_POINT('',(-66.3,6.37070260807493,0.));
#511=CARTESIAN_POINT('',(-66.3,6.37070260807493,3.));
#512=CARTESIAN_POINT('Origin',(-68.,6.37070260807493,0.));
#513=CARTESIAN_POINT('Origin',(10.,6.5,3.));
#514=CARTESIAN_POINT('',(20.,13.,3.));
#515=CARTESIAN_POINT('',(20.,0.,3.));
#516=CARTESIAN_POINT('',(-156.,13.,3.));
#517=CARTESIAN_POINT('',(20.,13.,3.));
#518=CARTESIAN_POINT('',(-156.,13.,3.));
#519=CARTESIAN_POINT('Origin',(-136.000002026558,6.35607669034791,3.));
#520=CARTESIAN_POINT('Origin',(-68.,6.37070260807493,3.));
#521=CARTESIAN_POINT('Origin',(-68.,6.37070260807493,3.));
#522=CARTESIAN_POINT('Origin',(-136.000002026558,6.35607669034791,3.));
#523=CARTESIAN_POINT('Origin',(-156.,13.,0.));
#524=CARTESIAN_POINT('',(-156.,13.,0.));
#525=CARTESIAN_POINT('',(-156.,0.,0.));
#526=CARTESIAN_POINT('',(-156.,13.,0.));
#527=CARTESIAN_POINT('',(-156.,-4.22618261740699,9.0630778703665));
#528=CARTESIAN_POINT('',(-156.,0.,0.));
#529=CARTESIAN_POINT('',(-156.,-1.50725925629704,10.3309326555886));
#530=CARTESIAN_POINT('',(-156.,-4.22618261740699,9.0630778703665));
#531=CARTESIAN_POINT('',(-156.,-1.50725925629704,10.3309326555886));
#532=CARTESIAN_POINT('',(-156.,13.,0.));
#533=CARTESIAN_POINT('Origin',(20.,-1.50725925629704,10.3309326555886));
#534=CARTESIAN_POINT('',(20.,-1.50725925629704,10.3309326555886));
#535=CARTESIAN_POINT('',(20.,-1.50725925629704,10.3309326555886));
#536=CARTESIAN_POINT('',(20.,-1.50725925629704,10.3309326555886));
#537=CARTESIAN_POINT('Origin',(20.,0.,0.));
#538=CARTESIAN_POINT('',(20.,0.,0.));
#539=CARTESIAN_POINT('',(20.,-4.22618261740699,9.0630778703665));
#540=CARTESIAN_POINT('',(20.,0.,0.));
#541=CARTESIAN_POINT('',(20.,-4.22618261740699,9.0630778703665));
#542=CARTESIAN_POINT('',(0.,0.,0.));
#543=CARTESIAN_POINT('Origin',(20.,-4.22618261740699,9.0630778703665));
#544=CARTESIAN_POINT('',(20.,-4.22618261740699,9.0630778703665));
#545=CARTESIAN_POINT('Origin',(20.,13.,0.));
#546=CARTESIAN_POINT('',(20.,13.,0.));
#547=CARTESIAN_POINT('',(20.,13.,0.));
#548=CARTESIAN_POINT('',(20.,13.,0.));
#549=CARTESIAN_POINT('Origin',(20.,0.,0.));
#550=CARTESIAN_POINT('',(20.,0.,0.));
#551=CARTESIAN_POINT('Origin',(10.,6.5,0.));
#552=UNCERTAINTY_MEASURE_WITH_UNIT(LENGTH_MEASURE(0.01),#556,
'DISTANCE_ACCURACY_VALUE',
'Maximum model space distance between geometric entities at asserted c
onnectivities');
#553=UNCERTAINTY_MEASURE_WITH_UNIT(LENGTH_MEASURE(0.01),#556,
'DISTANCE_ACCURACY_VALUE',
'Maximum model space distance between geometric entities at asserted c
onnectivities');
#554=(
GEOMETRIC_REPRESENTATION_CONTEXT(3)
GLOBAL_UNCERTAINTY_ASSIGNED_CONTEXT((#552))
GLOBAL_UNIT_ASSIGNED_CONTEXT((#556,#558,#559))
REPRESENTATION_CONTEXT('','3D')
);
#555=(
GEOMETRIC_REPRESENTATION_CONTEXT(3)
GLOBAL_UNCERTAINTY_ASSIGNED_CONTEXT((#553))
GLOBAL_UNIT_ASSIGNED_CONTEXT((#556,#558,#559))
REPRESENTATION_CONTEXT('','3D')
);
#556=(
LENGTH_UNIT()
NAMED_UNIT(*)
SI_UNIT(.MILLI.,.METRE.)
);
#557=(
LENGTH_UNIT()
NAMED_UNIT(*)
SI_UNIT($,.METRE.)
);
#558=(
NAMED_UNIT(*)
PLANE_ANGLE_UNIT()
SI_UNIT($,.RADIAN.)
);
#559=(
NAMED_UNIT(*)
SI_UNIT($,.STERADIAN.)
SOLID_ANGLE_UNIT()
);
#560=SHAPE_DEFINITION_REPRESENTATION(#561,#562);
#561=PRODUCT_DEFINITION_SHAPE('',$,#564);
#562=SHAPE_REPRESENTATION('',(#307),#554);
#563=PRODUCT_DEFINITION_CONTEXT('part definition',#568,'design');
#564=PRODUCT_DEFINITION('10mm LED Strip Mount',
'10mm LED Strip Mount v5',#565,#563);
#565=PRODUCT_DEFINITION_FORMATION('',$,#570);
#566=PRODUCT_RELATED_PRODUCT_CATEGORY('10mm LED Strip Mount v5',
'10mm LED Strip Mount v5',(#570));
#567=APPLICATION_PROTOCOL_DEFINITION('international standard',
'automotive_design',2009,#568);
#568=APPLICATION_CONTEXT(
'Core Data for Automotive Mechanical Design Process');
#569=PRODUCT_CONTEXT('part definition',#568,'mechanical');
#570=PRODUCT('10mm LED Strip Mount','10mm LED Strip Mount v5',$,(#569));
#571=PRESENTATION_STYLE_ASSIGNMENT((#572));
#572=SURFACE_STYLE_USAGE(.BOTH.,#573);
#573=SURFACE_SIDE_STYLE('',(#574));
#574=SURFACE_STYLE_FILL_AREA(#575);
#575=FILL_AREA_STYLE('Steel - Satin',(#576));
#576=FILL_AREA_STYLE_COLOUR('Steel - Satin',#577);
#577=COLOUR_RGB('Steel - Satin',0.627450980392157,0.627450980392157,0.627450980392157);
ENDSEC;
END-ISO-10303-21;
