ISO-10303-21;
HEADER;
/* Generated by software containing ST-Developer
 * from STEP Tools, Inc. (www.steptools.com) 
 */

FILE_DESCRIPTION(
/* description */ (''),
/* implementation_level */ '2;1');

FILE_NAME(
/* name */ 
'C:/Users/steve/git/VoronUsers-Noms/printer_mods/Nomsplease/V0_Mods/le
d_mounts/12mm_strip_mini_mount.step',
/* time_stamp */ '2020-08-16T12:45:18-04:00',
/* author */ (''),
/* organization */ (''),
/* preprocessor_version */ 'ST-DEVELOPER v18.1',
/* originating_system */ 'Autodesk Translation Framework v9.3.0.1241',
/* authorisation */ '');

FILE_SCHEMA (('AUTOMOTIVE_DESIGN { 1 0 10303 214 3 1 1 }'));
ENDSEC;

DATA;
#10=MECHANICAL_DESIGN_GEOMETRIC_PRESENTATION_REPRESENTATION('',(#13),#466);
#11=SHAPE_REPRESENTATION_RELATIONSHIP('SRR','None',#473,#12);
#12=ADVANCED_BREP_SHAPE_REPRESENTATION('',(#14),#465);
#13=STYLED_ITEM('',(#482),#14);
#14=MANIFOLD_SOLID_BREP('Body1',#252);
#15=B_SPLINE_CURVE_WITH_KNOTS('',3,(#403,#404,#405,#406,#407,#408,#409,
#410,#411,#412,#413,#414,#415,#416,#417,#418,#419,#420,#421),
 .UNSPECIFIED.,.F.,.F.,(4,2,2,2,3,2,2,2,4),(-0.442815604078355,-0.332176975112948,
-0.221538346147541,-0.110769173073771,0.,0.110769173073771,0.221538346147541,
0.332176975112948,0.442815604078355),.UNSPECIFIED.);
#16=B_SPLINE_CURVE_WITH_KNOTS('',3,(#422,#423,#424,#425,#426,#427,#428,
#429,#430,#431,#432,#433,#434,#435,#436,#437,#438,#439,#440,#441,#442,#443,
#444),.UNSPECIFIED.,.F.,.F.,(4,2,2,2,2,3,2,2,2,2,4),(-0.444371743998882,
-0.442910275361676,-0.332231881907652,-0.221553488453628,-0.110776744226814,
0.,0.110776744226815,0.221553488453629,0.332231881907653,0.442910275361677,
0.444371743998406),.UNSPECIFIED.);
#17=CYLINDRICAL_SURFACE('',#276,7.);
#18=CYLINDRICAL_SURFACE('',#278,1.7);
#19=CYLINDRICAL_SURFACE('',#280,1.7);
#20=CYLINDRICAL_SURFACE('',#282,2.9);
#21=CYLINDRICAL_SURFACE('',#283,2.89999999999999);
#22=FACE_BOUND('',#51,.T.);
#23=FACE_BOUND('',#52,.T.);
#24=FACE_BOUND('',#62,.T.);
#25=FACE_BOUND('',#63,.T.);
#26=CIRCLE('',#268,7.);
#27=CIRCLE('',#271,2.89999999999999);
#28=CIRCLE('',#272,2.9);
#29=CIRCLE('',#273,1.7);
#30=CIRCLE('',#274,1.7);
#31=CIRCLE('',#277,7.);
#32=CIRCLE('',#279,1.7);
#33=CIRCLE('',#281,1.7);
#34=FACE_OUTER_BOUND('',#47,.T.);
#35=FACE_OUTER_BOUND('',#48,.T.);
#36=FACE_OUTER_BOUND('',#49,.T.);
#37=FACE_OUTER_BOUND('',#50,.T.);
#38=FACE_OUTER_BOUND('',#53,.T.);
#39=FACE_OUTER_BOUND('',#54,.T.);
#40=FACE_OUTER_BOUND('',#55,.T.);
#41=FACE_OUTER_BOUND('',#56,.T.);
#42=FACE_OUTER_BOUND('',#57,.T.);
#43=FACE_OUTER_BOUND('',#58,.T.);
#44=FACE_OUTER_BOUND('',#59,.T.);
#45=FACE_OUTER_BOUND('',#60,.T.);
#46=FACE_OUTER_BOUND('',#61,.T.);
#47=EDGE_LOOP('',(#165,#166,#167,#168));
#48=EDGE_LOOP('',(#169,#170,#171,#172,#173,#174,#175));
#49=EDGE_LOOP('',(#176,#177,#178,#179));
#50=EDGE_LOOP('',(#180,#181,#182,#183,#184,#185,#186,#187));
#51=EDGE_LOOP('',(#188));
#52=EDGE_LOOP('',(#189));
#53=EDGE_LOOP('',(#190,#191,#192,#193));
#54=EDGE_LOOP('',(#194,#195,#196,#197,#198,#199,#200,#201));
#55=EDGE_LOOP('',(#202,#203,#204,#205));
#56=EDGE_LOOP('',(#206,#207,#208,#209));
#57=EDGE_LOOP('',(#210,#211));
#58=EDGE_LOOP('',(#212,#213));
#59=EDGE_LOOP('',(#214,#215,#216,#217,#218,#219,#220));
#60=EDGE_LOOP('',(#221,#222,#223,#224));
#61=EDGE_LOOP('',(#225,#226,#227,#228));
#62=EDGE_LOOP('',(#229));
#63=EDGE_LOOP('',(#230));
#64=LINE('',#358,#87);
#65=LINE('',#360,#88);
#66=LINE('',#362,#89);
#67=LINE('',#363,#90);
#68=LINE('',#366,#91);
#69=LINE('',#368,#92);
#70=LINE('',#370,#93);
#71=LINE('',#372,#94);
#72=LINE('',#374,#95);
#73=LINE('',#378,#96);
#74=LINE('',#380,#97);
#75=LINE('',#381,#98);
#76=LINE('',#384,#99);
#77=LINE('',#386,#100);
#78=LINE('',#388,#101);
#79=LINE('',#392,#102);
#80=LINE('',#395,#103);
#81=LINE('',#401,#104);
#82=LINE('',#448,#105);
#83=LINE('',#452,#106);
#84=LINE('',#458,#107);
#85=LINE('',#459,#108);
#86=LINE('',#461,#109);
#87=VECTOR('',#291,10.);
#88=VECTOR('',#292,10.);
#89=VECTOR('',#293,10.);
#90=VECTOR('',#294,10.);
#91=VECTOR('',#297,10.);
#92=VECTOR('',#298,10.);
#93=VECTOR('',#299,10.);
#94=VECTOR('',#300,10.);
#95=VECTOR('',#301,10.);
#96=VECTOR('',#306,10.);
#97=VECTOR('',#307,10.);
#98=VECTOR('',#308,10.);
#99=VECTOR('',#311,10.);
#100=VECTOR('',#312,10.);
#101=VECTOR('',#313,10.);
#102=VECTOR('',#316,10.);
#103=VECTOR('',#319,10.);
#104=VECTOR('',#326,10.);
#105=VECTOR('',#333,1.7);
#106=VECTOR('',#338,1.7);
#107=VECTOR('',#347,10.);
#108=VECTOR('',#348,10.);
#109=VECTOR('',#351,10.);
#110=VERTEX_POINT('',#356);
#111=VERTEX_POINT('',#357);
#112=VERTEX_POINT('',#359);
#113=VERTEX_POINT('',#361);
#114=VERTEX_POINT('',#365);
#115=VERTEX_POINT('',#367);
#116=VERTEX_POINT('',#369);
#117=VERTEX_POINT('',#371);
#118=VERTEX_POINT('',#373);
#119=VERTEX_POINT('',#377);
#120=VERTEX_POINT('',#379);
#121=VERTEX_POINT('',#383);
#122=VERTEX_POINT('',#385);
#123=VERTEX_POINT('',#387);
#124=VERTEX_POINT('',#389);
#125=VERTEX_POINT('',#391);
#126=VERTEX_POINT('',#393);
#127=VERTEX_POINT('',#396);
#128=VERTEX_POINT('',#398);
#129=VERTEX_POINT('',#447);
#130=VERTEX_POINT('',#451);
#131=VERTEX_POINT('',#457);
#132=EDGE_CURVE('',#110,#111,#64,.T.);
#133=EDGE_CURVE('',#112,#111,#65,.T.);
#134=EDGE_CURVE('',#112,#113,#66,.T.);
#135=EDGE_CURVE('',#110,#113,#67,.T.);
#136=EDGE_CURVE('',#114,#110,#68,.T.);
#137=EDGE_CURVE('',#115,#114,#69,.T.);
#138=EDGE_CURVE('',#116,#115,#70,.T.);
#139=EDGE_CURVE('',#117,#116,#71,.T.);
#140=EDGE_CURVE('',#118,#117,#72,.T.);
#141=EDGE_CURVE('',#111,#118,#26,.T.);
#142=EDGE_CURVE('',#119,#114,#73,.T.);
#143=EDGE_CURVE('',#120,#119,#74,.T.);
#144=EDGE_CURVE('',#115,#120,#75,.T.);
#145=EDGE_CURVE('',#117,#121,#76,.T.);
#146=EDGE_CURVE('',#122,#121,#77,.T.);
#147=EDGE_CURVE('',#123,#122,#78,.T.);
#148=EDGE_CURVE('',#123,#124,#27,.T.);
#149=EDGE_CURVE('',#125,#124,#79,.T.);
#150=EDGE_CURVE('',#125,#126,#28,.T.);
#151=EDGE_CURVE('',#118,#126,#80,.T.);
#152=EDGE_CURVE('',#127,#127,#29,.T.);
#153=EDGE_CURVE('',#128,#128,#30,.T.);
#154=EDGE_CURVE('',#113,#119,#81,.T.);
#155=EDGE_CURVE('',#126,#125,#15,.T.);
#156=EDGE_CURVE('',#124,#123,#16,.T.);
#157=EDGE_CURVE('',#112,#122,#31,.T.);
#158=EDGE_CURVE('',#127,#129,#82,.T.);
#159=EDGE_CURVE('',#129,#129,#32,.T.);
#160=EDGE_CURVE('',#128,#130,#83,.T.);
#161=EDGE_CURVE('',#130,#130,#33,.T.);
#162=EDGE_CURVE('',#131,#120,#84,.T.);
#163=EDGE_CURVE('',#121,#131,#85,.T.);
#164=EDGE_CURVE('',#116,#131,#86,.T.);
#165=ORIENTED_EDGE('',*,*,#132,.T.);
#166=ORIENTED_EDGE('',*,*,#133,.F.);
#167=ORIENTED_EDGE('',*,*,#134,.T.);
#168=ORIENTED_EDGE('',*,*,#135,.F.);
#169=ORIENTED_EDGE('',*,*,#132,.F.);
#170=ORIENTED_EDGE('',*,*,#136,.F.);
#171=ORIENTED_EDGE('',*,*,#137,.F.);
#172=ORIENTED_EDGE('',*,*,#138,.F.);
#173=ORIENTED_EDGE('',*,*,#139,.F.);
#174=ORIENTED_EDGE('',*,*,#140,.F.);
#175=ORIENTED_EDGE('',*,*,#141,.F.);
#176=ORIENTED_EDGE('',*,*,#137,.T.);
#177=ORIENTED_EDGE('',*,*,#142,.F.);
#178=ORIENTED_EDGE('',*,*,#143,.F.);
#179=ORIENTED_EDGE('',*,*,#144,.F.);
#180=ORIENTED_EDGE('',*,*,#140,.T.);
#181=ORIENTED_EDGE('',*,*,#145,.T.);
#182=ORIENTED_EDGE('',*,*,#146,.F.);
#183=ORIENTED_EDGE('',*,*,#147,.F.);
#184=ORIENTED_EDGE('',*,*,#148,.T.);
#185=ORIENTED_EDGE('',*,*,#149,.F.);
#186=ORIENTED_EDGE('',*,*,#150,.T.);
#187=ORIENTED_EDGE('',*,*,#151,.F.);
#188=ORIENTED_EDGE('',*,*,#152,.T.);
#189=ORIENTED_EDGE('',*,*,#153,.T.);
#190=ORIENTED_EDGE('',*,*,#136,.T.);
#191=ORIENTED_EDGE('',*,*,#135,.T.);
#192=ORIENTED_EDGE('',*,*,#154,.T.);
#193=ORIENTED_EDGE('',*,*,#142,.T.);
#194=ORIENTED_EDGE('',*,*,#141,.T.);
#195=ORIENTED_EDGE('',*,*,#151,.T.);
#196=ORIENTED_EDGE('',*,*,#155,.T.);
#197=ORIENTED_EDGE('',*,*,#149,.T.);
#198=ORIENTED_EDGE('',*,*,#156,.T.);
#199=ORIENTED_EDGE('',*,*,#147,.T.);
#200=ORIENTED_EDGE('',*,*,#157,.F.);
#201=ORIENTED_EDGE('',*,*,#133,.T.);
#202=ORIENTED_EDGE('',*,*,#152,.F.);
#203=ORIENTED_EDGE('',*,*,#158,.T.);
#204=ORIENTED_EDGE('',*,*,#159,.F.);
#205=ORIENTED_EDGE('',*,*,#158,.F.);
#206=ORIENTED_EDGE('',*,*,#153,.F.);
#207=ORIENTED_EDGE('',*,*,#160,.T.);
#208=ORIENTED_EDGE('',*,*,#161,.F.);
#209=ORIENTED_EDGE('',*,*,#160,.F.);
#210=ORIENTED_EDGE('',*,*,#155,.F.);
#211=ORIENTED_EDGE('',*,*,#150,.F.);
#212=ORIENTED_EDGE('',*,*,#156,.F.);
#213=ORIENTED_EDGE('',*,*,#148,.F.);
#214=ORIENTED_EDGE('',*,*,#162,.T.);
#215=ORIENTED_EDGE('',*,*,#143,.T.);
#216=ORIENTED_EDGE('',*,*,#154,.F.);
#217=ORIENTED_EDGE('',*,*,#134,.F.);
#218=ORIENTED_EDGE('',*,*,#157,.T.);
#219=ORIENTED_EDGE('',*,*,#146,.T.);
#220=ORIENTED_EDGE('',*,*,#163,.T.);
#221=ORIENTED_EDGE('',*,*,#139,.T.);
#222=ORIENTED_EDGE('',*,*,#164,.T.);
#223=ORIENTED_EDGE('',*,*,#163,.F.);
#224=ORIENTED_EDGE('',*,*,#145,.F.);
#225=ORIENTED_EDGE('',*,*,#138,.T.);
#226=ORIENTED_EDGE('',*,*,#144,.T.);
#227=ORIENTED_EDGE('',*,*,#162,.F.);
#228=ORIENTED_EDGE('',*,*,#164,.F.);
#229=ORIENTED_EDGE('',*,*,#159,.T.);
#230=ORIENTED_EDGE('',*,*,#161,.T.);
#231=PLANE('',#266);
#232=PLANE('',#267);
#233=PLANE('',#269);
#234=PLANE('',#270);
#235=PLANE('',#275);
#236=PLANE('',#284);
#237=PLANE('',#285);
#238=PLANE('',#286);
#239=ADVANCED_FACE('',(#34),#231,.T.);
#240=ADVANCED_FACE('',(#35),#232,.T.);
#241=ADVANCED_FACE('',(#36),#233,.T.);
#242=ADVANCED_FACE('',(#37,#22,#23),#234,.T.);
#243=ADVANCED_FACE('',(#38),#235,.T.);
#244=ADVANCED_FACE('',(#39),#17,.F.);
#245=ADVANCED_FACE('',(#40),#18,.F.);
#246=ADVANCED_FACE('',(#41),#19,.F.);
#247=ADVANCED_FACE('',(#42),#20,.F.);
#248=ADVANCED_FACE('',(#43),#21,.F.);
#249=ADVANCED_FACE('',(#44),#236,.T.);
#250=ADVANCED_FACE('',(#45),#237,.T.);
#251=ADVANCED_FACE('',(#46,#24,#25),#238,.F.);
#252=CLOSED_SHELL('',(#239,#240,#241,#242,#243,#244,#245,#246,#247,#248,
#249,#250,#251));
#253=DERIVED_UNIT_ELEMENT(#255,1.);
#254=DERIVED_UNIT_ELEMENT(#468,3.);
#255=(
MASS_UNIT()
NAMED_UNIT(*)
SI_UNIT(.KILO.,.GRAM.)
);
#256=DERIVED_UNIT((#253,#254));
#257=MEASURE_REPRESENTATION_ITEM('density measure',
POSITIVE_RATIO_MEASURE(7850.),#256);
#258=PROPERTY_DEFINITION_REPRESENTATION(#263,#260);
#259=PROPERTY_DEFINITION_REPRESENTATION(#264,#261);
#260=REPRESENTATION('material name',(#262),#465);
#261=REPRESENTATION('density',(#257),#465);
#262=DESCRIPTIVE_REPRESENTATION_ITEM('Steel','Steel');
#263=PROPERTY_DEFINITION('material property','material name',#475);
#264=PROPERTY_DEFINITION('material property','density of part',#475);
#265=AXIS2_PLACEMENT_3D('placement',#354,#287,#288);
#266=AXIS2_PLACEMENT_3D('',#355,#289,#290);
#267=AXIS2_PLACEMENT_3D('',#364,#295,#296);
#268=AXIS2_PLACEMENT_3D('',#375,#302,#303);
#269=AXIS2_PLACEMENT_3D('',#376,#304,#305);
#270=AXIS2_PLACEMENT_3D('',#382,#309,#310);
#271=AXIS2_PLACEMENT_3D('',#390,#314,#315);
#272=AXIS2_PLACEMENT_3D('',#394,#317,#318);
#273=AXIS2_PLACEMENT_3D('',#397,#320,#321);
#274=AXIS2_PLACEMENT_3D('',#399,#322,#323);
#275=AXIS2_PLACEMENT_3D('',#400,#324,#325);
#276=AXIS2_PLACEMENT_3D('',#402,#327,#328);
#277=AXIS2_PLACEMENT_3D('',#445,#329,#330);
#278=AXIS2_PLACEMENT_3D('',#446,#331,#332);
#279=AXIS2_PLACEMENT_3D('',#449,#334,#335);
#280=AXIS2_PLACEMENT_3D('',#450,#336,#337);
#281=AXIS2_PLACEMENT_3D('',#453,#339,#340);
#282=AXIS2_PLACEMENT_3D('',#454,#341,#342);
#283=AXIS2_PLACEMENT_3D('',#455,#343,#344);
#284=AXIS2_PLACEMENT_3D('',#456,#345,#346);
#285=AXIS2_PLACEMENT_3D('',#460,#349,#350);
#286=AXIS2_PLACEMENT_3D('',#462,#352,#353);
#287=DIRECTION('axis',(0.,0.,1.));
#288=DIRECTION('refdir',(1.,0.,0.));
#289=DIRECTION('center_axis',(0.,0.90630778703665,0.422618261740699));
#290=DIRECTION('ref_axis',(0.,0.422618261740699,-0.90630778703665));
#291=DIRECTION('',(0.,0.422618261740699,-0.90630778703665));
#292=DIRECTION('',(1.,0.,0.));
#293=DIRECTION('',(0.,-0.422618261740699,0.90630778703665));
#294=DIRECTION('',(-1.,0.,0.));
#295=DIRECTION('center_axis',(1.,0.,0.));
#296=DIRECTION('ref_axis',(0.,1.,0.));
#297=DIRECTION('',(0.,0.90630778703665,0.422618261740699));
#298=DIRECTION('',(0.,-0.422618261740699,0.90630778703665));
#299=DIRECTION('',(0.,-1.,0.));
#300=DIRECTION('',(0.,0.,-1.));
#301=DIRECTION('',(0.,1.,0.));
#302=DIRECTION('center_axis',(1.,0.,0.));
#303=DIRECTION('ref_axis',(0.,-0.537299608346824,-0.843391445812885));
#304=DIRECTION('center_axis',(0.,-0.90630778703665,-0.422618261740699));
#305=DIRECTION('ref_axis',(0.,-0.422618261740699,0.90630778703665));
#306=DIRECTION('',(1.,0.,0.));
#307=DIRECTION('',(0.,-0.422618261740699,0.90630778703665));
#308=DIRECTION('',(-1.,0.,0.));
#309=DIRECTION('center_axis',(0.,0.,1.));
#310=DIRECTION('ref_axis',(1.,0.,0.));
#311=DIRECTION('',(-1.,0.,0.));
#312=DIRECTION('',(0.,1.,0.));
#313=DIRECTION('',(-1.,0.,0.));
#314=DIRECTION('center_axis',(0.,0.,1.));
#315=DIRECTION('ref_axis',(-1.,0.,0.));
#316=DIRECTION('',(-1.,0.,0.));
#317=DIRECTION('center_axis',(0.,0.,1.));
#318=DIRECTION('ref_axis',(-1.,0.,0.));
#319=DIRECTION('',(-1.,0.,0.));
#320=DIRECTION('center_axis',(0.,0.,-1.));
#321=DIRECTION('ref_axis',(-1.,0.,0.));
#322=DIRECTION('center_axis',(0.,0.,-1.));
#323=DIRECTION('ref_axis',(-1.,0.,0.));
#324=DIRECTION('center_axis',(0.,-0.422618261740699,0.90630778703665));
#325=DIRECTION('ref_axis',(1.,0.,0.));
#326=DIRECTION('',(0.,-0.90630778703665,-0.422618261740699));
#327=DIRECTION('center_axis',(1.,0.,0.));
#328=DIRECTION('ref_axis',(0.,-0.537299608346824,-0.843391445812885));
#329=DIRECTION('center_axis',(1.,0.,0.));
#330=DIRECTION('ref_axis',(0.,-0.537299608346824,-0.843391445812885));
#331=DIRECTION('center_axis',(0.,0.,-1.));
#332=DIRECTION('ref_axis',(-1.,0.,0.));
#333=DIRECTION('',(0.,0.,-1.));
#334=DIRECTION('center_axis',(0.,0.,1.));
#335=DIRECTION('ref_axis',(-1.,0.,0.));
#336=DIRECTION('center_axis',(0.,0.,-1.));
#337=DIRECTION('ref_axis',(-1.,0.,0.));
#338=DIRECTION('',(0.,0.,-1.));
#339=DIRECTION('center_axis',(0.,0.,1.));
#340=DIRECTION('ref_axis',(-1.,0.,0.));
#341=DIRECTION('center_axis',(0.,0.,1.));
#342=DIRECTION('ref_axis',(-1.,0.,0.));
#343=DIRECTION('center_axis',(0.,0.,1.));
#344=DIRECTION('ref_axis',(-6.12323399573677E-17,-1.,0.));
#345=DIRECTION('center_axis',(-1.,0.,0.));
#346=DIRECTION('ref_axis',(0.,-1.,0.));
#347=DIRECTION('',(0.,-1.,0.));
#348=DIRECTION('',(0.,0.,-1.));
#349=DIRECTION('center_axis',(0.,1.,0.));
#350=DIRECTION('ref_axis',(-1.,0.,0.));
#351=DIRECTION('',(-1.,0.,0.));
#352=DIRECTION('center_axis',(0.,0.,1.));
#353=DIRECTION('ref_axis',(1.,0.,0.));
#354=CARTESIAN_POINT('',(0.,0.,0.));
#355=CARTESIAN_POINT('Origin',(20.,-1.50725925629704,10.3309326555886));
#356=CARTESIAN_POINT('',(-59.,-2.35249577977844,12.1435482296619));
#357=CARTESIAN_POINT('',(-59.,0.0265480988183808,7.04167216781511));
#358=CARTESIAN_POINT('',(-59.,0.605832052406452,5.79939372040535));
#359=CARTESIAN_POINT('',(-156.,0.0265480988183819,7.04167216781511));
#360=CARTESIAN_POINT('',(15.,0.0265480988183819,7.04167216781511));
#361=CARTESIAN_POINT('',(-156.,-2.35249577977844,12.1435482296619));
#362=CARTESIAN_POINT('',(-156.,-1.50725925629704,10.3309326555886));
#363=CARTESIAN_POINT('',(20.,-2.35249577977844,12.1435482296619));
#364=CARTESIAN_POINT('Origin',(-59.,4.3869086912965,5.1654663277943));
#365=CARTESIAN_POINT('',(-59.,-5.07141914088839,10.8756934444398));
#366=CARTESIAN_POINT('',(-59.,-5.07141914088839,10.8756934444398));
#367=CARTESIAN_POINT('',(-59.,0.,0.));
#368=CARTESIAN_POINT('',(-59.,0.,0.));
#369=CARTESIAN_POINT('',(-59.,13.,0.));
#370=CARTESIAN_POINT('',(-59.,5.44345434564825,0.));
#371=CARTESIAN_POINT('',(-59.,13.,3.));
#372=CARTESIAN_POINT('',(-59.,13.,2.58273316389715));
#373=CARTESIAN_POINT('',(-59.,6.37070260807493,3.));
#374=CARTESIAN_POINT('',(-59.,5.44345434564825,3.));
#375=CARTESIAN_POINT('Origin',(-59.,6.37070260807493,10.));
#376=CARTESIAN_POINT('Origin',(20.,0.,0.));
#377=CARTESIAN_POINT('',(-156.,-5.07141914088839,10.8756934444398));
#378=CARTESIAN_POINT('',(20.,-5.07141914088839,10.8756934444398));
#379=CARTESIAN_POINT('',(-156.,0.,0.));
#380=CARTESIAN_POINT('',(-156.,0.,0.));
#381=CARTESIAN_POINT('',(0.,0.,0.));
#382=CARTESIAN_POINT('Origin',(10.,6.5,3.));
#383=CARTESIAN_POINT('',(-156.,13.,3.));
#384=CARTESIAN_POINT('',(20.,13.,3.));
#385=CARTESIAN_POINT('',(-156.,6.37070260807493,3.));
#386=CARTESIAN_POINT('',(-156.,13.,3.));
#387=CARTESIAN_POINT('',(-138.899965144001,6.37070260807493,3.));
#388=CARTESIAN_POINT('',(15.,6.37070260807493,3.));
#389=CARTESIAN_POINT('',(-133.100038909115,6.37070260807493,3.));
#390=CARTESIAN_POINT('Origin',(-136.000002026558,6.35607669034791,3.));
#391=CARTESIAN_POINT('',(-70.9,6.37070260807493,3.));
#392=CARTESIAN_POINT('',(15.,6.37070260807493,3.));
#393=CARTESIAN_POINT('',(-65.1,6.37070260807493,3.));
#394=CARTESIAN_POINT('Origin',(-68.,6.37070260807493,3.));
#395=CARTESIAN_POINT('',(15.,6.37070260807493,3.));
#396=CARTESIAN_POINT('',(-134.300002026558,6.35607669034791,3.));
#397=CARTESIAN_POINT('Origin',(-136.000002026558,6.35607669034791,3.));
#398=CARTESIAN_POINT('',(-66.3,6.37070260807493,3.));
#399=CARTESIAN_POINT('Origin',(-68.,6.37070260807493,3.));
#400=CARTESIAN_POINT('Origin',(20.,-5.07141914088839,10.8756934444398));
#401=CARTESIAN_POINT('',(-156.,-5.07141914088839,10.8756934444398));
#402=CARTESIAN_POINT('Origin',(15.,6.37070260807493,10.));
#403=CARTESIAN_POINT('Ctrl Pts',(-65.1,6.37070260807493,3.));
#404=CARTESIAN_POINT('Ctrl Pts',(-65.1,6.00190717819024,3.));
#405=CARTESIAN_POINT('Ctrl Pts',(-65.1746041318475,5.61145834296211,3.03192492044417));
#406=CARTESIAN_POINT('Ctrl Pts',(-65.4719815168434,4.89814159870747,3.14711110388459));
#407=CARTESIAN_POINT('Ctrl Pts',(-65.6945251829836,4.57495809420937,3.22900631631235));
#408=CARTESIAN_POINT('Ctrl Pts',(-66.2045562051896,4.06492707200337,3.38527243383022));
#409=CARTESIAN_POINT('Ctrl Pts',(-66.5276273807849,3.84261058661098,3.47048134544987));
#410=CARTESIAN_POINT('Ctrl Pts',(-67.240500215701,3.54540826440125,3.59347387936499));
#411=CARTESIAN_POINT('Ctrl Pts',(-67.6307694230874,3.47070260807493,3.62897182552141));
#412=CARTESIAN_POINT('Ctrl Pts',(-68.,3.47070260807493,3.62897182552141));
#413=CARTESIAN_POINT('Ctrl Pts',(-68.3692305769126,3.47070260807493,3.62897182552141));
#414=CARTESIAN_POINT('Ctrl Pts',(-68.759499784299,3.54540826440125,3.59347387936499));
#415=CARTESIAN_POINT('Ctrl Pts',(-69.4723726192151,3.84261058661098,3.47048134544987));
#416=CARTESIAN_POINT('Ctrl Pts',(-69.7954437948104,4.06492707200337,3.38527243383022));
#417=CARTESIAN_POINT('Ctrl Pts',(-70.3054748170164,4.57495809420937,3.22900631631235));
#418=CARTESIAN_POINT('Ctrl Pts',(-70.5280184831566,4.89814159870748,3.14711110388459));
#419=CARTESIAN_POINT('Ctrl Pts',(-70.8253958681525,5.61145834296212,3.03192492044418));
#420=CARTESIAN_POINT('Ctrl Pts',(-70.9,6.00190717819024,3.));
#421=CARTESIAN_POINT('Ctrl Pts',(-70.9,6.37070260807493,3.));
#422=CARTESIAN_POINT('Ctrl Pts',(-133.100038909115,6.37070260807493,3.));
#423=CARTESIAN_POINT('Ctrl Pts',(-133.100014301869,6.36582359081176,3.));
#424=CARTESIAN_POINT('Ctrl Pts',(-133.100002026558,6.36094824183812,3.00000510111208));
#425=CARTESIAN_POINT('Ctrl Pts',(-133.100002026558,5.98714951747625,3.00078612415821));
#426=CARTESIAN_POINT('Ctrl Pts',(-133.174654009681,5.59663877003078,3.0335481996909));
#427=CARTESIAN_POINT('Ctrl Pts',(-133.472111041329,4.88328877389884,3.15031200881707));
#428=CARTESIAN_POINT('Ctrl Pts',(-133.694684076733,4.56013024891593,3.23294991434952));
#429=CARTESIAN_POINT('Ctrl Pts',(-134.204689836743,4.05021468178318,3.39041594345514));
#430=CARTESIAN_POINT('Ctrl Pts',(-134.527698347854,3.82795145311517,3.47617283080321));
#431=CARTESIAN_POINT('Ctrl Pts',(-135.240490534807,3.53079170185178,3.59993653459536));
#432=CARTESIAN_POINT('Ctrl Pts',(-135.630746212469,3.45607669034792,3.63564961997582));
#433=CARTESIAN_POINT('Ctrl Pts',(-136.000002026558,3.45607669034792,3.63564961997582));
#434=CARTESIAN_POINT('Ctrl Pts',(-136.369257840647,3.45607669034792,3.63564961997582));
#435=CARTESIAN_POINT('Ctrl Pts',(-136.759513518309,3.53079170185178,3.59993653459536));
#436=CARTESIAN_POINT('Ctrl Pts',(-137.472305705262,3.82795145311516,3.47617283080321));
#437=CARTESIAN_POINT('Ctrl Pts',(-137.795314216373,4.05021468178318,3.39041594345514));
#438=CARTESIAN_POINT('Ctrl Pts',(-138.305319976382,4.56013024891593,3.23294991434952));
#439=CARTESIAN_POINT('Ctrl Pts',(-138.527893011787,4.88328877389885,3.15031200881707));
#440=CARTESIAN_POINT('Ctrl Pts',(-138.825350043435,5.59663877003078,3.0335481996909));
#441=CARTESIAN_POINT('Ctrl Pts',(-138.900002026558,5.98714951747626,3.00078612415821));
#442=CARTESIAN_POINT('Ctrl Pts',(-138.900002026558,6.36094824183653,3.00000510111209));
#443=CARTESIAN_POINT('Ctrl Pts',(-138.899989751247,6.36582359081019,3.));
#444=CARTESIAN_POINT('Ctrl Pts',(-138.899965144001,6.37070260807493,3.));
#445=CARTESIAN_POINT('Origin',(-156.,6.37070260807493,10.));
#446=CARTESIAN_POINT('Origin',(-136.000002026558,6.35607669034791,3.));
#447=CARTESIAN_POINT('',(-134.300002026558,6.35607669034791,0.));
#448=CARTESIAN_POINT('',(-134.300002026558,6.35607669034791,3.));
#449=CARTESIAN_POINT('Origin',(-136.000002026558,6.35607669034791,0.));
#450=CARTESIAN_POINT('Origin',(-68.,6.37070260807493,3.));
#451=CARTESIAN_POINT('',(-66.3,6.37070260807493,0.));
#452=CARTESIAN_POINT('',(-66.3,6.37070260807493,3.));
#453=CARTESIAN_POINT('Origin',(-68.,6.37070260807493,0.));
#454=CARTESIAN_POINT('Origin',(-68.,6.37070260807493,3.));
#455=CARTESIAN_POINT('Origin',(-136.000002026558,6.35607669034791,3.));
#456=CARTESIAN_POINT('Origin',(-156.,13.,0.));
#457=CARTESIAN_POINT('',(-156.,13.,0.));
#458=CARTESIAN_POINT('',(-156.,13.,0.));
#459=CARTESIAN_POINT('',(-156.,13.,0.));
#460=CARTESIAN_POINT('Origin',(20.,13.,0.));
#461=CARTESIAN_POINT('',(20.,13.,0.));
#462=CARTESIAN_POINT('Origin',(10.,6.5,0.));
#463=UNCERTAINTY_MEASURE_WITH_UNIT(LENGTH_MEASURE(0.01),#467,
'DISTANCE_ACCURACY_VALUE',
'Maximum model space distance between geometric entities at asserted c
onnectivities');
#464=UNCERTAINTY_MEASURE_WITH_UNIT(LENGTH_MEASURE(0.01),#467,
'DISTANCE_ACCURACY_VALUE',
'Maximum model space distance between geometric entities at asserted c
onnectivities');
#465=(
GEOMETRIC_REPRESENTATION_CONTEXT(3)
GLOBAL_UNCERTAINTY_ASSIGNED_CONTEXT((#463))
GLOBAL_UNIT_ASSIGNED_CONTEXT((#467,#469,#470))
REPRESENTATION_CONTEXT('','3D')
);
#466=(
GEOMETRIC_REPRESENTATION_CONTEXT(3)
GLOBAL_UNCERTAINTY_ASSIGNED_CONTEXT((#464))
GLOBAL_UNIT_ASSIGNED_CONTEXT((#467,#469,#470))
REPRESENTATION_CONTEXT('','3D')
);
#467=(
LENGTH_UNIT()
NAMED_UNIT(*)
SI_UNIT(.MILLI.,.METRE.)
);
#468=(
LENGTH_UNIT()
NAMED_UNIT(*)
SI_UNIT($,.METRE.)
);
#469=(
NAMED_UNIT(*)
PLANE_ANGLE_UNIT()
SI_UNIT($,.RADIAN.)
);
#470=(
NAMED_UNIT(*)
SI_UNIT($,.STERADIAN.)
SOLID_ANGLE_UNIT()
);
#471=SHAPE_DEFINITION_REPRESENTATION(#472,#473);
#472=PRODUCT_DEFINITION_SHAPE('',$,#475);
#473=SHAPE_REPRESENTATION('',(#265),#465);
#474=PRODUCT_DEFINITION_CONTEXT('part definition',#479,'design');
#475=PRODUCT_DEFINITION('12mm LED Strip Mount Mini',
'12mm LED Strip Mount Mini v1',#476,#474);
#476=PRODUCT_DEFINITION_FORMATION('',$,#481);
#477=PRODUCT_RELATED_PRODUCT_CATEGORY('12mm LED Strip Mount Mini v1',
'12mm LED Strip Mount Mini v1',(#481));
#478=APPLICATION_PROTOCOL_DEFINITION('international standard',
'automotive_design',2009,#479);
#479=APPLICATION_CONTEXT(
'Core Data for Automotive Mechanical Design Process');
#480=PRODUCT_CONTEXT('part definition',#479,'mechanical');
#481=PRODUCT('12mm LED Strip Mount Mini','12mm LED Strip Mount Mini v1',
$,(#480));
#482=PRESENTATION_STYLE_ASSIGNMENT((#483));
#483=SURFACE_STYLE_USAGE(.BOTH.,#484);
#484=SURFACE_SIDE_STYLE('',(#485));
#485=SURFACE_STYLE_FILL_AREA(#486);
#486=FILL_AREA_STYLE('Steel - Satin',(#487));
#487=FILL_AREA_STYLE_COLOUR('Steel - Satin',#488);
#488=COLOUR_RGB('Steel - Satin',0.627450980392157,0.627450980392157,0.627450980392157);
ENDSEC;
END-ISO-10303-21;
