ISO-10303-21;
HEADER;
/* Generated by software containing ST-Developer
 * from STEP Tools, Inc. (www.steptools.com) 
 */
/* OPTION: using custom renumber hook */

FILE_DESCRIPTION(
/* description */ ('STEP AP242',
'CAx-IF Rec.Pracs.---Representation and Presentation of Product Manufa
cturing Information (PMI)---4.0---2014-10-13',
'CAx-IF Rec.Pracs.---3D Tessellated Geometry---0.4---2014-09-14','2;1'),

/* implementation_level */ '2;1');

FILE_NAME(
/* name */ '6352ff1fb5d19b22ef365809',
/* time_stamp */ '2022-10-21T20:20:48+00:00',
/* author */ (''),
/* organization */ (''),
/* preprocessor_version */ 'ST-DEVELOPER v18.102',
/* originating_system */ '  ',
/* authorisation */ '  ');

FILE_SCHEMA (('AP242_MANAGED_MODEL_BASED_3D_ENGINEERING_MIM_LF { 1 0 10303 442 1 1 4 }'));
ENDSEC;

DATA;
#10=SHAPE_REPRESENTATION_RELATIONSHIP('','',#375,#11);
#11=ADVANCED_BREP_SHAPE_REPRESENTATION('',(#373),#581);
#12=ORIENTED_EDGE('',*,*,#108,.F.);
#13=ORIENTED_EDGE('',*,*,#109,.T.);
#14=ORIENTED_EDGE('',*,*,#110,.T.);
#15=ORIENTED_EDGE('',*,*,#111,.F.);
#16=ORIENTED_EDGE('',*,*,#112,.T.);
#17=ORIENTED_EDGE('',*,*,#113,.F.);
#18=ORIENTED_EDGE('',*,*,#114,.F.);
#19=ORIENTED_EDGE('',*,*,#115,.T.);
#20=ORIENTED_EDGE('',*,*,#116,.F.);
#21=ORIENTED_EDGE('',*,*,#117,.T.);
#22=ORIENTED_EDGE('',*,*,#118,.T.);
#23=ORIENTED_EDGE('',*,*,#119,.F.);
#24=ORIENTED_EDGE('',*,*,#120,.F.);
#25=ORIENTED_EDGE('',*,*,#121,.F.);
#26=ORIENTED_EDGE('',*,*,#122,.T.);
#27=ORIENTED_EDGE('',*,*,#123,.T.);
#28=ORIENTED_EDGE('',*,*,#124,.F.);
#29=ORIENTED_EDGE('',*,*,#125,.T.);
#30=ORIENTED_EDGE('',*,*,#126,.T.);
#31=ORIENTED_EDGE('',*,*,#127,.F.);
#32=ORIENTED_EDGE('',*,*,#128,.F.);
#33=ORIENTED_EDGE('',*,*,#129,.T.);
#34=ORIENTED_EDGE('',*,*,#130,.T.);
#35=ORIENTED_EDGE('',*,*,#131,.F.);
#36=ORIENTED_EDGE('',*,*,#132,.F.);
#37=ORIENTED_EDGE('',*,*,#133,.F.);
#38=ORIENTED_EDGE('',*,*,#134,.T.);
#39=ORIENTED_EDGE('',*,*,#121,.T.);
#40=ORIENTED_EDGE('',*,*,#135,.F.);
#41=ORIENTED_EDGE('',*,*,#136,.F.);
#42=ORIENTED_EDGE('',*,*,#137,.T.);
#43=ORIENTED_EDGE('',*,*,#133,.T.);
#44=ORIENTED_EDGE('',*,*,#138,.T.);
#45=ORIENTED_EDGE('',*,*,#115,.F.);
#46=ORIENTED_EDGE('',*,*,#139,.F.);
#47=ORIENTED_EDGE('',*,*,#136,.T.);
#48=ORIENTED_EDGE('',*,*,#140,.F.);
#49=ORIENTED_EDGE('',*,*,#141,.F.);
#50=ORIENTED_EDGE('',*,*,#142,.T.);
#51=ORIENTED_EDGE('',*,*,#113,.T.);
#52=ORIENTED_EDGE('',*,*,#143,.F.);
#53=ORIENTED_EDGE('',*,*,#144,.F.);
#54=ORIENTED_EDGE('',*,*,#145,.T.);
#55=ORIENTED_EDGE('',*,*,#141,.T.);
#56=ORIENTED_EDGE('',*,*,#146,.T.);
#57=ORIENTED_EDGE('',*,*,#123,.F.);
#58=ORIENTED_EDGE('',*,*,#147,.F.);
#59=ORIENTED_EDGE('',*,*,#144,.T.);
#60=ORIENTED_EDGE('',*,*,#134,.F.);
#61=ORIENTED_EDGE('',*,*,#137,.F.);
#62=ORIENTED_EDGE('',*,*,#139,.T.);
#63=ORIENTED_EDGE('',*,*,#114,.T.);
#64=ORIENTED_EDGE('',*,*,#142,.F.);
#65=ORIENTED_EDGE('',*,*,#145,.F.);
#66=ORIENTED_EDGE('',*,*,#147,.T.);
#67=ORIENTED_EDGE('',*,*,#122,.F.);
#68=ORIENTED_EDGE('',*,*,#132,.T.);
#69=ORIENTED_EDGE('',*,*,#120,.T.);
#70=ORIENTED_EDGE('',*,*,#146,.F.);
#71=ORIENTED_EDGE('',*,*,#143,.T.);
#72=ORIENTED_EDGE('',*,*,#140,.T.);
#73=ORIENTED_EDGE('',*,*,#112,.F.);
#74=ORIENTED_EDGE('',*,*,#138,.F.);
#75=ORIENTED_EDGE('',*,*,#135,.T.);
#76=ORIENTED_EDGE('',*,*,#108,.T.);
#77=ORIENTED_EDGE('',*,*,#148,.T.);
#78=ORIENTED_EDGE('',*,*,#125,.F.);
#79=ORIENTED_EDGE('',*,*,#149,.F.);
#80=ORIENTED_EDGE('',*,*,#149,.T.);
#81=ORIENTED_EDGE('',*,*,#124,.T.);
#82=ORIENTED_EDGE('',*,*,#150,.F.);
#83=ORIENTED_EDGE('',*,*,#109,.F.);
#84=ORIENTED_EDGE('',*,*,#150,.T.);
#85=ORIENTED_EDGE('',*,*,#127,.T.);
#86=ORIENTED_EDGE('',*,*,#151,.F.);
#87=ORIENTED_EDGE('',*,*,#110,.F.);
#88=ORIENTED_EDGE('',*,*,#111,.T.);
#89=ORIENTED_EDGE('',*,*,#151,.T.);
#90=ORIENTED_EDGE('',*,*,#126,.F.);
#91=ORIENTED_EDGE('',*,*,#148,.F.);
#92=ORIENTED_EDGE('',*,*,#116,.T.);
#93=ORIENTED_EDGE('',*,*,#152,.T.);
#94=ORIENTED_EDGE('',*,*,#129,.F.);
#95=ORIENTED_EDGE('',*,*,#153,.F.);
#96=ORIENTED_EDGE('',*,*,#153,.T.);
#97=ORIENTED_EDGE('',*,*,#128,.T.);
#98=ORIENTED_EDGE('',*,*,#154,.F.);
#99=ORIENTED_EDGE('',*,*,#117,.F.);
#100=ORIENTED_EDGE('',*,*,#154,.T.);
#101=ORIENTED_EDGE('',*,*,#131,.T.);
#102=ORIENTED_EDGE('',*,*,#155,.F.);
#103=ORIENTED_EDGE('',*,*,#118,.F.);
#104=ORIENTED_EDGE('',*,*,#119,.T.);
#105=ORIENTED_EDGE('',*,*,#155,.T.);
#106=ORIENTED_EDGE('',*,*,#130,.F.);
#107=ORIENTED_EDGE('',*,*,#152,.F.);
#108=EDGE_CURVE('',#156,#157,#188,.F.);
#109=EDGE_CURVE('',#156,#158,#189,.F.);
#110=EDGE_CURVE('',#158,#159,#190,.F.);
#111=EDGE_CURVE('',#157,#159,#191,.F.);
#112=EDGE_CURVE('',#160,#161,#192,.F.);
#113=EDGE_CURVE('',#162,#161,#193,.F.);
#114=EDGE_CURVE('',#163,#162,#194,.F.);
#115=EDGE_CURVE('',#163,#160,#195,.T.);
#116=EDGE_CURVE('',#164,#165,#196,.F.);
#117=EDGE_CURVE('',#164,#166,#197,.F.);
#118=EDGE_CURVE('',#166,#167,#198,.F.);
#119=EDGE_CURVE('',#165,#167,#199,.F.);
#120=EDGE_CURVE('',#168,#169,#200,.T.);
#121=EDGE_CURVE('',#170,#168,#201,.T.);
#122=EDGE_CURVE('',#170,#171,#202,.T.);
#123=EDGE_CURVE('',#171,#169,#203,.F.);
#124=EDGE_CURVE('',#172,#173,#204,.T.);
#125=EDGE_CURVE('',#172,#174,#205,.T.);
#126=EDGE_CURVE('',#174,#175,#206,.T.);
#127=EDGE_CURVE('',#173,#175,#207,.T.);
#128=EDGE_CURVE('',#176,#177,#208,.T.);
#129=EDGE_CURVE('',#176,#178,#209,.T.);
#130=EDGE_CURVE('',#178,#179,#210,.T.);
#131=EDGE_CURVE('',#177,#179,#211,.T.);
#132=EDGE_CURVE('',#180,#168,#212,.T.);
#133=EDGE_CURVE('',#181,#180,#213,.T.);
#134=EDGE_CURVE('',#181,#170,#214,.T.);
#135=EDGE_CURVE('',#182,#180,#215,.T.);
#136=EDGE_CURVE('',#183,#182,#216,.F.);
#137=EDGE_CURVE('',#183,#181,#217,.T.);
#138=EDGE_CURVE('',#182,#160,#218,.F.);
#139=EDGE_CURVE('',#183,#163,#219,.F.);
#140=EDGE_CURVE('',#184,#161,#220,.T.);
#141=EDGE_CURVE('',#185,#184,#221,.T.);
#142=EDGE_CURVE('',#185,#162,#222,.T.);
#143=EDGE_CURVE('',#186,#184,#223,.T.);
#144=EDGE_CURVE('',#187,#186,#224,.F.);
#145=EDGE_CURVE('',#187,#185,#225,.T.);
#146=EDGE_CURVE('',#186,#169,#226,.F.);
#147=EDGE_CURVE('',#187,#171,#227,.F.);
#148=EDGE_CURVE('',#157,#174,#228,.T.);
#149=EDGE_CURVE('',#156,#172,#229,.T.);
#150=EDGE_CURVE('',#158,#173,#230,.T.);
#151=EDGE_CURVE('',#159,#175,#231,.T.);
#152=EDGE_CURVE('',#165,#178,#232,.T.);
#153=EDGE_CURVE('',#164,#176,#233,.T.);
#154=EDGE_CURVE('',#166,#177,#234,.T.);
#155=EDGE_CURVE('',#167,#179,#235,.T.);
#156=VERTEX_POINT('',#484);
#157=VERTEX_POINT('',#485);
#158=VERTEX_POINT('',#487);
#159=VERTEX_POINT('',#489);
#160=VERTEX_POINT('',#492);
#161=VERTEX_POINT('',#493);
#162=VERTEX_POINT('',#495);
#163=VERTEX_POINT('',#497);
#164=VERTEX_POINT('',#500);
#165=VERTEX_POINT('',#501);
#166=VERTEX_POINT('',#503);
#167=VERTEX_POINT('',#505);
#168=VERTEX_POINT('',#509);
#169=VERTEX_POINT('',#510);
#170=VERTEX_POINT('',#512);
#171=VERTEX_POINT('',#514);
#172=VERTEX_POINT('',#517);
#173=VERTEX_POINT('',#518);
#174=VERTEX_POINT('',#520);
#175=VERTEX_POINT('',#522);
#176=VERTEX_POINT('',#525);
#177=VERTEX_POINT('',#526);
#178=VERTEX_POINT('',#528);
#179=VERTEX_POINT('',#530);
#180=VERTEX_POINT('',#534);
#181=VERTEX_POINT('',#536);
#182=VERTEX_POINT('',#540);
#183=VERTEX_POINT('',#542);
#184=VERTEX_POINT('',#549);
#185=VERTEX_POINT('',#551);
#186=VERTEX_POINT('',#555);
#187=VERTEX_POINT('',#557);
#188=LINE('',#483,#236);
#189=LINE('',#486,#237);
#190=LINE('',#488,#238);
#191=LINE('',#490,#239);
#192=LINE('',#491,#240);
#193=LINE('',#494,#241);
#194=LINE('',#496,#242);
#195=LINE('',#498,#243);
#196=LINE('',#499,#244);
#197=LINE('',#502,#245);
#198=LINE('',#504,#246);
#199=LINE('',#506,#247);
#200=LINE('',#508,#248);
#201=LINE('',#511,#249);
#202=LINE('',#513,#250);
#203=LINE('',#515,#251);
#204=LINE('',#516,#252);
#205=LINE('',#519,#253);
#206=LINE('',#521,#254);
#207=LINE('',#523,#255);
#208=LINE('',#524,#256);
#209=LINE('',#527,#257);
#210=LINE('',#529,#258);
#211=LINE('',#531,#259);
#212=LINE('',#533,#260);
#213=LINE('',#535,#261);
#214=LINE('',#537,#262);
#215=LINE('',#539,#263);
#216=LINE('',#541,#264);
#217=LINE('',#543,#265);
#218=LINE('',#545,#266);
#219=LINE('',#546,#267);
#220=LINE('',#548,#268);
#221=LINE('',#550,#269);
#222=LINE('',#552,#270);
#223=LINE('',#554,#271);
#224=LINE('',#556,#272);
#225=LINE('',#558,#273);
#226=LINE('',#560,#274);
#227=LINE('',#561,#275);
#228=LINE('',#565,#276);
#229=LINE('',#566,#277);
#230=LINE('',#568,#278);
#231=LINE('',#570,#279);
#232=LINE('',#573,#280);
#233=LINE('',#574,#281);
#234=LINE('',#576,#282);
#235=LINE('',#578,#283);
#236=VECTOR('',#399,1.);
#237=VECTOR('',#400,1.);
#238=VECTOR('',#401,1.);
#239=VECTOR('',#402,1.);
#240=VECTOR('',#403,1.);
#241=VECTOR('',#404,1.);
#242=VECTOR('',#405,1.);
#243=VECTOR('',#406,1.);
#244=VECTOR('',#407,1.);
#245=VECTOR('',#408,1.);
#246=VECTOR('',#409,1.);
#247=VECTOR('',#410,1.);
#248=VECTOR('',#413,1.);
#249=VECTOR('',#414,1.);
#250=VECTOR('',#415,1.);
#251=VECTOR('',#416,1.);
#252=VECTOR('',#417,1.);
#253=VECTOR('',#418,1.);
#254=VECTOR('',#419,1.);
#255=VECTOR('',#420,1.);
#256=VECTOR('',#421,1.);
#257=VECTOR('',#422,1.);
#258=VECTOR('',#423,1.);
#259=VECTOR('',#424,1.);
#260=VECTOR('',#427,1.);
#261=VECTOR('',#428,1.);
#262=VECTOR('',#429,1.);
#263=VECTOR('',#432,1.);
#264=VECTOR('',#433,1.);
#265=VECTOR('',#434,1.);
#266=VECTOR('',#437,1.);
#267=VECTOR('',#438,1.);
#268=VECTOR('',#441,1.);
#269=VECTOR('',#442,1.);
#270=VECTOR('',#443,1.);
#271=VECTOR('',#446,1.);
#272=VECTOR('',#447,1.);
#273=VECTOR('',#448,1.);
#274=VECTOR('',#451,1.);
#275=VECTOR('',#452,1.);
#276=VECTOR('',#459,1.);
#277=VECTOR('',#460,1.);
#278=VECTOR('',#463,1.);
#279=VECTOR('',#466,1.);
#280=VECTOR('',#471,1.);
#281=VECTOR('',#472,1.);
#282=VECTOR('',#475,1.);
#283=VECTOR('',#478,1.);
#284=EDGE_LOOP('',(#12,#13,#14,#15));
#285=EDGE_LOOP('',(#16,#17,#18,#19));
#286=EDGE_LOOP('',(#20,#21,#22,#23));
#287=EDGE_LOOP('',(#24,#25,#26,#27));
#288=EDGE_LOOP('',(#28,#29,#30,#31));
#289=EDGE_LOOP('',(#32,#33,#34,#35));
#290=EDGE_LOOP('',(#36,#37,#38,#39));
#291=EDGE_LOOP('',(#40,#41,#42,#43));
#292=EDGE_LOOP('',(#44,#45,#46,#47));
#293=EDGE_LOOP('',(#48,#49,#50,#51));
#294=EDGE_LOOP('',(#52,#53,#54,#55));
#295=EDGE_LOOP('',(#56,#57,#58,#59));
#296=EDGE_LOOP('',(#60,#61,#62,#63,#64,#65,#66,#67));
#297=EDGE_LOOP('',(#68,#69,#70,#71,#72,#73,#74,#75));
#298=EDGE_LOOP('',(#76,#77,#78,#79));
#299=EDGE_LOOP('',(#80,#81,#82,#83));
#300=EDGE_LOOP('',(#84,#85,#86,#87));
#301=EDGE_LOOP('',(#88,#89,#90,#91));
#302=EDGE_LOOP('',(#92,#93,#94,#95));
#303=EDGE_LOOP('',(#96,#97,#98,#99));
#304=EDGE_LOOP('',(#100,#101,#102,#103));
#305=EDGE_LOOP('',(#104,#105,#106,#107));
#306=FACE_BOUND('',#284,.T.);
#307=FACE_BOUND('',#285,.T.);
#308=FACE_BOUND('',#286,.T.);
#309=FACE_BOUND('',#287,.T.);
#310=FACE_BOUND('',#288,.T.);
#311=FACE_BOUND('',#289,.T.);
#312=FACE_BOUND('',#290,.T.);
#313=FACE_BOUND('',#291,.T.);
#314=FACE_BOUND('',#292,.T.);
#315=FACE_BOUND('',#293,.T.);
#316=FACE_BOUND('',#294,.T.);
#317=FACE_BOUND('',#295,.T.);
#318=FACE_BOUND('',#296,.T.);
#319=FACE_BOUND('',#297,.T.);
#320=FACE_BOUND('',#298,.T.);
#321=FACE_BOUND('',#299,.T.);
#322=FACE_BOUND('',#300,.T.);
#323=FACE_BOUND('',#301,.T.);
#324=FACE_BOUND('',#302,.T.);
#325=FACE_BOUND('',#303,.T.);
#326=FACE_BOUND('',#304,.T.);
#327=FACE_BOUND('',#305,.T.);
#328=PLANE('',#377);
#329=PLANE('',#378);
#330=PLANE('',#379);
#331=PLANE('',#380);
#332=PLANE('',#381);
#333=PLANE('',#382);
#334=PLANE('',#383);
#335=PLANE('',#384);
#336=PLANE('',#385);
#337=PLANE('',#386);
#338=PLANE('',#387);
#339=PLANE('',#388);
#340=PLANE('',#389);
#341=PLANE('',#390);
#342=PLANE('',#391);
#343=PLANE('',#392);
#344=PLANE('',#393);
#345=PLANE('',#394);
#346=ADVANCED_FACE('',(#306,#307,#308),#328,.T.);
#347=ADVANCED_FACE('',(#309,#310,#311),#329,.T.);
#348=ADVANCED_FACE('',(#312),#330,.T.);
#349=ADVANCED_FACE('',(#313),#331,.T.);
#350=ADVANCED_FACE('',(#314),#332,.T.);
#351=ADVANCED_FACE('',(#315),#333,.T.);
#352=ADVANCED_FACE('',(#316),#334,.T.);
#353=ADVANCED_FACE('',(#317),#335,.T.);
#354=ADVANCED_FACE('',(#318),#336,.T.);
#355=ADVANCED_FACE('',(#319),#337,.F.);
#356=ADVANCED_FACE('',(#320),#338,.T.);
#357=ADVANCED_FACE('',(#321),#339,.F.);
#358=ADVANCED_FACE('',(#322),#340,.F.);
#359=ADVANCED_FACE('',(#323),#341,.T.);
#360=ADVANCED_FACE('',(#324),#342,.T.);
#361=ADVANCED_FACE('',(#325),#343,.F.);
#362=ADVANCED_FACE('',(#326),#344,.F.);
#363=ADVANCED_FACE('',(#327),#345,.T.);
#364=CLOSED_SHELL('',(#346,#347,#348,#349,#350,#351,#352,#353,#354,#355,
#356,#357,#358,#359,#360,#361,#362,#363));
#365=STYLED_ITEM('',(#366),#373);
#366=PRESENTATION_STYLE_ASSIGNMENT((#367));
#367=SURFACE_STYLE_USAGE(.BOTH.,#368);
#368=SURFACE_SIDE_STYLE('',(#369));
#369=SURFACE_STYLE_FILL_AREA(#370);
#370=FILL_AREA_STYLE('',(#371));
#371=FILL_AREA_STYLE_COLOUR('',#372);
#372=COLOUR_RGB('',0.647058823529412,0.647058823529412,0.647058823529412);
#373=MANIFOLD_SOLID_BREP('Key',#364);
#374=SHAPE_DEFINITION_REPRESENTATION(#586,#375);
#375=SHAPE_REPRESENTATION('Key',(#376),#581);
#376=AXIS2_PLACEMENT_3D('',#481,#395,#396);
#377=AXIS2_PLACEMENT_3D('',#482,#397,#398);
#378=AXIS2_PLACEMENT_3D('',#507,#411,#412);
#379=AXIS2_PLACEMENT_3D('',#532,#425,#426);
#380=AXIS2_PLACEMENT_3D('',#538,#430,#431);
#381=AXIS2_PLACEMENT_3D('',#544,#435,#436);
#382=AXIS2_PLACEMENT_3D('',#547,#439,#440);
#383=AXIS2_PLACEMENT_3D('',#553,#444,#445);
#384=AXIS2_PLACEMENT_3D('',#559,#449,#450);
#385=AXIS2_PLACEMENT_3D('',#562,#453,#454);
#386=AXIS2_PLACEMENT_3D('',#563,#455,#456);
#387=AXIS2_PLACEMENT_3D('',#564,#457,#458);
#388=AXIS2_PLACEMENT_3D('',#567,#461,#462);
#389=AXIS2_PLACEMENT_3D('',#569,#464,#465);
#390=AXIS2_PLACEMENT_3D('',#571,#467,#468);
#391=AXIS2_PLACEMENT_3D('',#572,#469,#470);
#392=AXIS2_PLACEMENT_3D('',#575,#473,#474);
#393=AXIS2_PLACEMENT_3D('',#577,#476,#477);
#394=AXIS2_PLACEMENT_3D('',#579,#479,#480);
#395=DIRECTION('',(0.,0.,1.));
#396=DIRECTION('',(1.,0.,0.));
#397=DIRECTION('',(0.999815712121644,0.,-0.0191974423996898));
#398=DIRECTION('',(-0.0191974423996898,0.,-0.999815712121644));
#399=DIRECTION('',(0.0191974423996898,2.47634977110079E-16,0.999815712121644));
#400=DIRECTION('',(0.,-1.,0.));
#401=DIRECTION('',(0.0191974423996898,3.09543721387599E-16,0.999815712121644));
#402=DIRECTION('',(0.,-1.,0.));
#403=DIRECTION('',(0.,1.,0.));
#404=DIRECTION('',(-0.0191939058472476,0.0191939058472475,-0.999631526091816));
#405=DIRECTION('',(0.,1.,0.));
#406=DIRECTION('',(0.0191939058472476,0.0191939058472475,0.999631526091816));
#407=DIRECTION('',(0.,1.,0.));
#408=DIRECTION('',(0.0191974423996898,0.,0.999815712121644));
#409=DIRECTION('',(0.,1.,0.));
#410=DIRECTION('',(0.0191974423996898,6.19087442775198E-17,0.999815712121644));
#411=DIRECTION('',(-0.999815712121644,0.,-0.0191974423996896));
#412=DIRECTION('',(-0.0191974423996896,0.,0.999815712121644));
#413=DIRECTION('',(0.,-1.,0.));
#414=DIRECTION('',(-0.0191939058472473,-0.0191939058472475,0.999631526091816));
#415=DIRECTION('',(0.,-1.,0.));
#416=DIRECTION('',(0.0191939058472473,-0.0191939058472475,-0.999631526091816));
#417=DIRECTION('',(0.,1.,0.));
#418=DIRECTION('',(0.0191974423996896,-2.47817639425258E-16,-0.999815712121644));
#419=DIRECTION('',(0.,1.,0.));
#420=DIRECTION('',(0.0191974423996896,-3.09772049281573E-16,-0.999815712121644));
#421=DIRECTION('',(0.0191974423996896,0.,-0.999815712121644));
#422=DIRECTION('',(0.,-1.,0.));
#423=DIRECTION('',(0.0191974423996896,-6.19544098563145E-17,-0.999815712121644));
#424=DIRECTION('',(0.,-1.,0.));
#425=DIRECTION('',(-1.26236993457794E-16,-0.999815712121644,-0.0191974423996896));
#426=DIRECTION('',(1.224421111587E-16,-0.0191974423996896,0.999815712121644));
#427=DIRECTION('',(1.,-1.23908819712629E-16,-1.22464679914735E-16));
#428=DIRECTION('',(-0.0191939058472473,-0.0191939058472475,0.999631526091816));
#429=DIRECTION('',(1.,-1.23908819712629E-16,-1.22464679914735E-16));
#430=DIRECTION('',(-0.999815712121644,0.,-0.0191974423996896));
#431=DIRECTION('',(-0.0191974423996896,0.,0.999815712121644));
#432=DIRECTION('',(0.,-1.,0.));
#433=DIRECTION('',(0.0191939058472473,-0.0191939058472475,-0.999631526091816));
#434=DIRECTION('',(0.,-1.,0.));
#435=DIRECTION('',(1.71089370108129E-16,0.999815712121644,-0.0191974423996896));
#436=DIRECTION('',(-1.224421111587E-16,-0.0191974423996896,-0.999815712121644));
#437=DIRECTION('',(-1.,1.7347234759768E-16,1.22464679914735E-16));
#438=DIRECTION('',(-1.,1.7347234759768E-16,1.22464679914735E-16));
#439=DIRECTION('',(-1.75791387385448E-16,-0.999815712121644,-0.0191974423996896));
#440=DIRECTION('',(1.224421111587E-16,-0.0191974423996896,0.999815712121644));
#441=DIRECTION('',(1.,-1.7347234759768E-16,-1.22464679914735E-16));
#442=DIRECTION('',(-0.0191939058472473,-0.0191939058472475,0.999631526091816));
#443=DIRECTION('',(1.,-1.7347234759768E-16,-1.22464679914735E-16));
#444=DIRECTION('',(-0.999815712121644,0.,-0.0191974423996896));
#445=DIRECTION('',(-0.0191974423996896,0.,0.999815712121644));
#446=DIRECTION('',(0.,-1.,0.));
#447=DIRECTION('',(0.0191939058472473,-0.0191939058472475,-0.999631526091816));
#448=DIRECTION('',(0.,-1.,0.));
#449=DIRECTION('',(1.21534976180475E-16,0.999815712121644,-0.0191974423996896));
#450=DIRECTION('',(-1.224421111587E-16,-0.0191974423996896,-0.999815712121644));
#451=DIRECTION('',(-1.,1.23908819712629E-16,1.22464679914735E-16));
#452=DIRECTION('',(-1.,1.23908819712629E-16,1.22464679914735E-16));
#453=DIRECTION('',(-1.22464679914735E-16,0.,-1.));
#454=DIRECTION('',(-1.,0.,1.22464679914735E-16));
#455=DIRECTION('',(-1.22464679914735E-16,0.,-1.));
#456=DIRECTION('',(-1.,0.,1.22464679914735E-16));
#457=DIRECTION('',(4.75746485849342E-18,1.,-2.47771969638269E-16));
#458=DIRECTION('',(0.,2.47771969638269E-16,1.));
#459=DIRECTION('',(-0.999815712121644,0.,-0.0191974423996896));
#460=DIRECTION('',(-0.999815712121644,0.,-0.0191974423996896));
#461=DIRECTION('',(-0.0191974423996896,0.,0.999815712121644));
#462=DIRECTION('',(0.999815712121644,0.,0.0191974423996896));
#463=DIRECTION('',(-0.999815712121644,0.,-0.0191974423996896));
#464=DIRECTION('',(5.94683107311678E-18,1.,-3.09714962047836E-16));
#465=DIRECTION('',(0.,3.09714962047836E-16,1.));
#466=DIRECTION('',(-0.999815712121644,0.,-0.0191974423996896));
#467=DIRECTION('',(-0.0191974423996896,0.,0.999815712121644));
#468=DIRECTION('',(0.999815712121644,0.,0.0191974423996896));
#469=DIRECTION('',(0.0191974423996896,0.,-0.999815712121644));
#470=DIRECTION('',(-0.999815712121644,0.,-0.0191974423996896));
#471=DIRECTION('',(-0.999815712121644,0.,-0.0191974423996896));
#472=DIRECTION('',(-0.999815712121644,0.,-0.0191974423996896));
#473=DIRECTION('',(0.,1.,0.));
#474=DIRECTION('',(0.,0.,1.));
#475=DIRECTION('',(-0.999815712121644,0.,-0.0191974423996896));
#476=DIRECTION('',(0.0191974423996896,0.,-0.999815712121644));
#477=DIRECTION('',(-0.999815712121644,0.,-0.0191974423996896));
#478=DIRECTION('',(-0.999815712121644,0.,-0.0191974423996896));
#479=DIRECTION('',(1.18936621462336E-18,1.,-6.19429924095673E-17));
#480=DIRECTION('',(0.,6.19429924095673E-17,1.));
#481=CARTESIAN_POINT('',(0.,0.,0.));
#482=CARTESIAN_POINT('',(0.038,-0.00479628521436825,0.015));
#483=CARTESIAN_POINT('',(0.038,-0.00244964783238247,0.015));
#484=CARTESIAN_POINT('',(0.0378237941746557,-0.00244964783238247,0.0058230821023574));
#485=CARTESIAN_POINT('',(0.0377565535643063,-0.00244964783238247,0.00232114589021863));
#486=CARTESIAN_POINT('',(0.0378237941746557,-0.00479628521436825,0.0058230821023574));
#487=CARTESIAN_POINT('',(0.0378237941746557,-0.00084964783238247,0.00582308210235741));
#488=CARTESIAN_POINT('',(0.038,-0.000849647832382467,0.015));
#489=CARTESIAN_POINT('',(0.0377565535643063,-0.000849647832382471,0.00232114589021863));
#490=CARTESIAN_POINT('',(0.0377565535643063,-0.00479628521436825,0.00232114589021863));
#491=CARTESIAN_POINT('',(0.038,-0.00479628521436825,0.015));
#492=CARTESIAN_POINT('',(0.038,0.006,0.015));
#493=CARTESIAN_POINT('',(0.038,-0.006,0.015));
#494=CARTESIAN_POINT('',(0.0379995565442246,-0.0059995565442246,0.0149769045249545));
#495=CARTESIAN_POINT('',(0.0377119852863841,-0.00571198528638415,-3.46944695195361E-18));
#496=CARTESIAN_POINT('',(0.0377119852863841,-0.00479628521436825,-3.46944695195361E-18));
#497=CARTESIAN_POINT('',(0.0377119852863841,0.00571198528638414,-3.46944695195361E-18));
#498=CARTESIAN_POINT('',(0.0379960225835153,0.00599602258351532,0.0147928534743205));
#499=CARTESIAN_POINT('',(0.0378237941746557,-0.00479628521436825,0.0058230821023574));
#500=CARTESIAN_POINT('',(0.0378237941746557,0.00235035216761753,0.0058230821023574));
#501=CARTESIAN_POINT('',(0.0378237941746557,0.00075035216761753,0.0058230821023574));
#502=CARTESIAN_POINT('',(0.038,0.00235035216761753,0.015));
#503=CARTESIAN_POINT('',(0.0377565535643063,0.00235035216761753,0.00232114589021863));
#504=CARTESIAN_POINT('',(0.0377565535643063,-0.00479628521436825,0.00232114589021863));
#505=CARTESIAN_POINT('',(0.0377565535643063,0.00075035216761753,0.00232114589021863));
#506=CARTESIAN_POINT('',(0.038,0.00075035216761753,0.015));
#507=CARTESIAN_POINT('',(0.035,-0.00479628521436825,0.015));
#508=CARTESIAN_POINT('',(0.035,-0.00479628521436825,0.015));
#509=CARTESIAN_POINT('',(0.035,0.00340742957126349,0.015));
#510=CARTESIAN_POINT('',(0.035,-0.00359257042873651,0.015));
#511=CARTESIAN_POINT('',(0.0349969777020729,0.00340440727333638,0.0151574033088017));
#512=CARTESIAN_POINT('',(0.0352880147136159,0.00369544428487935,-3.46944695195361E-18));
#513=CARTESIAN_POINT('',(0.0352880147136159,-0.00479628521436825,-3.46944695195361E-18));
#514=CARTESIAN_POINT('',(0.0352880147136159,-0.00388058514235236,-3.46944695195361E-18));
#515=CARTESIAN_POINT('',(0.0350004434557754,-0.00359301388451191,0.0149769045249545));
#516=CARTESIAN_POINT('',(0.0351771815723063,-0.00164964783238247,0.00577226454430955));
#517=CARTESIAN_POINT('',(0.0351771815723063,-0.00244964783238247,0.00577226454430955));
#518=CARTESIAN_POINT('',(0.0351771815723063,-0.00084964783238247,0.00577226454430956));
#519=CARTESIAN_POINT('',(0.0352107770965057,-0.00244964783238247,0.00402258704809668));
#520=CARTESIAN_POINT('',(0.0352443726207051,-0.00244964783238247,0.0022729095518838));
#521=CARTESIAN_POINT('',(0.0352443726207051,-0.00164964783238247,0.0022729095518838));
#522=CARTESIAN_POINT('',(0.0352443726207051,-0.000849647832382471,0.0022729095518838));
#523=CARTESIAN_POINT('',(0.0352107770965057,-0.000849647832382471,0.00402258704809668));
#524=CARTESIAN_POINT('',(0.0352107770965057,0.00235035216761753,0.00402258704809668));
#525=CARTESIAN_POINT('',(0.0351771815723063,0.00235035216761753,0.00577226454430955));
#526=CARTESIAN_POINT('',(0.0352443726207051,0.00235035216761753,0.0022729095518838));
#527=CARTESIAN_POINT('',(0.0351771815723063,0.00155035216761753,0.00577226454430955));
#528=CARTESIAN_POINT('',(0.0351771815723063,0.00075035216761753,0.00577226454430955));
#529=CARTESIAN_POINT('',(0.0352107770965057,0.00075035216761753,0.00402258704809668));
#530=CARTESIAN_POINT('',(0.0352443726207051,0.00075035216761753,0.0022729095518838));
#531=CARTESIAN_POINT('',(0.0352443726207051,0.00155035216761753,0.0022729095518838));
#532=CARTESIAN_POINT('',(0.028,0.00340742957126349,0.015));
#533=CARTESIAN_POINT('',(0.028,0.00340742957126349,0.015));
#534=CARTESIAN_POINT('',(0.028,0.00340742957126349,0.015));
#535=CARTESIAN_POINT('',(0.0279969777020729,0.00340440727333638,0.0151574033088017));
#536=CARTESIAN_POINT('',(0.0282880147136159,0.00369544428487935,0.));
#537=CARTESIAN_POINT('',(0.028,0.00369544428487935,0.));
#538=CARTESIAN_POINT('',(0.028,-0.00479628521436825,0.015));
#539=CARTESIAN_POINT('',(0.028,-0.00479628521436825,0.015));
#540=CARTESIAN_POINT('',(0.028,0.006,0.015));
#541=CARTESIAN_POINT('',(0.0280039774164847,0.00599602258351532,0.0147928534743205));
#542=CARTESIAN_POINT('',(0.0282880147136159,0.00571198528638415,0.));
#543=CARTESIAN_POINT('',(0.0282880147136159,-0.00479628521436825,0.));
#544=CARTESIAN_POINT('',(0.028,0.006,0.015));
#545=CARTESIAN_POINT('',(0.028,0.006,0.015));
#546=CARTESIAN_POINT('',(0.028,0.00571198528638415,0.));
#547=CARTESIAN_POINT('',(0.028,-0.006,0.015));
#548=CARTESIAN_POINT('',(0.028,-0.006,0.015));
#549=CARTESIAN_POINT('',(0.028,-0.006,0.015));
#550=CARTESIAN_POINT('',(0.0280004434557754,-0.0059995565442246,0.0149769045249545));
#551=CARTESIAN_POINT('',(0.0282880147136159,-0.00571198528638415,0.));
#552=CARTESIAN_POINT('',(0.028,-0.00571198528638415,0.));
#553=CARTESIAN_POINT('',(0.028,-0.00479628521436825,0.015));
#554=CARTESIAN_POINT('',(0.028,-0.00479628521436825,0.015));
#555=CARTESIAN_POINT('',(0.028,-0.0035925704287365,0.015));
#556=CARTESIAN_POINT('',(0.0280004434557754,-0.00359301388451191,0.0149769045249545));
#557=CARTESIAN_POINT('',(0.0282880147136159,-0.00388058514235236,0.));
#558=CARTESIAN_POINT('',(0.0282880147136159,-0.00479628521436825,0.));
#559=CARTESIAN_POINT('',(0.028,-0.0035925704287365,0.015));
#560=CARTESIAN_POINT('',(0.028,-0.0035925704287365,0.015));
#561=CARTESIAN_POINT('',(0.028,-0.00388058514235236,0.));
#562=CARTESIAN_POINT('',(0.033,-1.7347234759768E-18,0.));
#563=CARTESIAN_POINT('',(0.033,-1.7347234759768E-18,0.015));
#564=CARTESIAN_POINT('',(0.0902379003643203,-0.00244964783238247,0.00507916179136892));
#565=CARTESIAN_POINT('',(0.0902714958885197,-0.00244964783238247,0.00332948429515604));
#566=CARTESIAN_POINT('',(0.0902043048401208,-0.00244964783238247,0.0068288392875818));
#567=CARTESIAN_POINT('',(0.0902043048401208,-0.00164964783238247,0.0068288392875818));
#568=CARTESIAN_POINT('',(0.0902043048401208,-0.00084964783238247,0.0068288392875818));
#569=CARTESIAN_POINT('',(0.0902379003643203,-0.000849647832382471,0.00507916179136892));
#570=CARTESIAN_POINT('',(0.0902714958885197,-0.000849647832382471,0.00332948429515604));
#571=CARTESIAN_POINT('',(0.0902714958885197,-0.00164964783238247,0.00332948429515604));
#572=CARTESIAN_POINT('',(0.0902043048401208,0.00155035216761753,0.0068288392875818));
#573=CARTESIAN_POINT('',(0.0902043048401208,0.00075035216761753,0.0068288392875818));
#574=CARTESIAN_POINT('',(0.0902043048401208,0.00235035216761753,0.0068288392875818));
#575=CARTESIAN_POINT('',(0.0902379003643203,0.00235035216761753,0.00507916179136892));
#576=CARTESIAN_POINT('',(0.0902714958885197,0.00235035216761753,0.00332948429515604));
#577=CARTESIAN_POINT('',(0.0902714958885197,0.00155035216761753,0.00332948429515604));
#578=CARTESIAN_POINT('',(0.0902714958885197,0.00075035216761753,0.00332948429515604));
#579=CARTESIAN_POINT('',(0.0902379003643203,0.00075035216761753,0.00507916179136892));
#580=MECHANICAL_DESIGN_GEOMETRIC_PRESENTATION_REPRESENTATION('',(#365),
#581);
#581=(
GEOMETRIC_REPRESENTATION_CONTEXT(3)
GLOBAL_UNCERTAINTY_ASSIGNED_CONTEXT((#582))
GLOBAL_UNIT_ASSIGNED_CONTEXT((#585,#584,#583))
REPRESENTATION_CONTEXT('Key','TOP_LEVEL_ASSEMBLY_PART')
);
#582=UNCERTAINTY_MEASURE_WITH_UNIT(LENGTH_MEASURE(5.E-6),#585,
'DISTANCE_ACCURACY_VALUE','Maximum Tolerance applied to model');
#583=(
NAMED_UNIT(*)
SI_UNIT($,.STERADIAN.)
SOLID_ANGLE_UNIT()
);
#584=(
NAMED_UNIT(*)
PLANE_ANGLE_UNIT()
SI_UNIT($,.RADIAN.)
);
#585=(
LENGTH_UNIT()
NAMED_UNIT(*)
SI_UNIT($,.METRE.)
);
#586=PRODUCT_DEFINITION_SHAPE('','',#587);
#587=PRODUCT_DEFINITION('','',#589,#588);
#588=PRODUCT_DEFINITION_CONTEXT('',#595,'design');
#589=PRODUCT_DEFINITION_FORMATION_WITH_SPECIFIED_SOURCE('','',#591,
 .NOT_KNOWN.);
#590=PRODUCT_RELATED_PRODUCT_CATEGORY('','',(#591));
#591=PRODUCT('Key','Key','Key',(#593));
#592=PRODUCT_CATEGORY('','');
#593=PRODUCT_CONTEXT('',#595,'mechanical');
#594=APPLICATION_PROTOCOL_DEFINITION('international standard',
'ap242_managed_model_based_3d_engineering',2011,#595);
#595=APPLICATION_CONTEXT('managed model based 3d engineering');
ENDSEC;
END-ISO-10303-21;
