ISO-10303-21;
HEADER;
/* Generated by software containing ST-Developer
 * from STEP Tools, Inc. (www.steptools.com) 
 */

FILE_DESCRIPTION(
/* description */ (''),
/* implementation_level */ '2;1');

FILE_NAME(
/* name */ 'P:\\Temp Work\\BTT octopus DIN virtical mount\\spacer.stp',

/* time_stamp */ '2021-07-11T22:54:25-05:00',
/* author */ ('robert'),
/* organization */ (''),
/* preprocessor_version */ 'ST-DEVELOPER v18',
/* originating_system */ 'Autodesk Inventor 2020',
/* authorisation */ '');

FILE_SCHEMA (('AUTOMOTIVE_DESIGN { 1 0 10303 214 3 1 1 }'));
ENDSEC;

DATA;
#10=MECHANICAL_DESIGN_GEOMETRIC_PRESENTATION_REPRESENTATION('',(#13),#151);
#11=SHAPE_REPRESENTATION_RELATIONSHIP('SRR','None',#158,#12);
#12=ADVANCED_BREP_SHAPE_REPRESENTATION('',(#14),#150);
#13=STYLED_ITEM('',(#167),#14);
#14=MANIFOLD_SOLID_BREP('Solid1',#75);
#15=FACE_BOUND('',#26,.T.);
#16=FACE_BOUND('',#28,.T.);
#17=PLANE('',#103);
#18=PLANE('',#104);
#19=FACE_OUTER_BOUND('',#23,.T.);
#20=FACE_OUTER_BOUND('',#24,.T.);
#21=FACE_OUTER_BOUND('',#25,.T.);
#22=FACE_OUTER_BOUND('',#27,.T.);
#23=EDGE_LOOP('',(#53,#54,#55,#56));
#24=EDGE_LOOP('',(#57,#58,#59,#60,#61,#62));
#25=EDGE_LOOP('',(#63,#64));
#26=EDGE_LOOP('',(#65));
#27=EDGE_LOOP('',(#66,#67));
#28=EDGE_LOOP('',(#68));
#29=LINE('',#134,#31);
#30=LINE('',#142,#32);
#31=VECTOR('',#111,1.625);
#32=VECTOR('',#120,3.);
#33=CIRCLE('',#96,1.625);
#34=CIRCLE('',#97,1.625);
#35=CIRCLE('',#99,3.);
#36=CIRCLE('',#100,3.);
#37=CIRCLE('',#101,3.);
#38=CIRCLE('',#102,3.);
#39=VERTEX_POINT('',#131);
#40=VERTEX_POINT('',#133);
#41=VERTEX_POINT('',#137);
#42=VERTEX_POINT('',#138);
#43=VERTEX_POINT('',#141);
#44=VERTEX_POINT('',#143);
#45=EDGE_CURVE('',#39,#39,#33,.T.);
#46=EDGE_CURVE('',#39,#40,#29,.T.);
#47=EDGE_CURVE('',#40,#40,#34,.T.);
#48=EDGE_CURVE('',#41,#42,#35,.T.);
#49=EDGE_CURVE('',#42,#41,#36,.T.);
#50=EDGE_CURVE('',#42,#43,#30,.T.);
#51=EDGE_CURVE('',#43,#44,#37,.T.);
#52=EDGE_CURVE('',#44,#43,#38,.T.);
#53=ORIENTED_EDGE('',*,*,#45,.F.);
#54=ORIENTED_EDGE('',*,*,#46,.T.);
#55=ORIENTED_EDGE('',*,*,#47,.T.);
#56=ORIENTED_EDGE('',*,*,#46,.F.);
#57=ORIENTED_EDGE('',*,*,#48,.F.);
#58=ORIENTED_EDGE('',*,*,#49,.F.);
#59=ORIENTED_EDGE('',*,*,#50,.T.);
#60=ORIENTED_EDGE('',*,*,#51,.T.);
#61=ORIENTED_EDGE('',*,*,#52,.T.);
#62=ORIENTED_EDGE('',*,*,#50,.F.);
#63=ORIENTED_EDGE('',*,*,#48,.T.);
#64=ORIENTED_EDGE('',*,*,#49,.T.);
#65=ORIENTED_EDGE('',*,*,#45,.T.);
#66=ORIENTED_EDGE('',*,*,#52,.F.);
#67=ORIENTED_EDGE('',*,*,#51,.F.);
#68=ORIENTED_EDGE('',*,*,#47,.F.);
#69=CYLINDRICAL_SURFACE('',#95,1.625);
#70=CYLINDRICAL_SURFACE('',#98,3.);
#71=ADVANCED_FACE('',(#19),#69,.F.);
#72=ADVANCED_FACE('',(#20),#70,.T.);
#73=ADVANCED_FACE('',(#21,#15),#17,.T.);
#74=ADVANCED_FACE('',(#22,#16),#18,.F.);
#75=CLOSED_SHELL('',(#71,#72,#73,#74));
#76=DERIVED_UNIT_ELEMENT(#78,1.);
#77=DERIVED_UNIT_ELEMENT(#153,3.);
#78=(
MASS_UNIT()
NAMED_UNIT(*)
SI_UNIT($,.GRAM.)
);
#79=DERIVED_UNIT((#76,#77));
#80=MEASURE_REPRESENTATION_ITEM('density measure',
POSITIVE_RATIO_MEASURE(1.),#79);
#81=PROPERTY_DEFINITION_REPRESENTATION(#86,#83);
#82=PROPERTY_DEFINITION_REPRESENTATION(#87,#84);
#83=REPRESENTATION('material name',(#85),#150);
#84=REPRESENTATION('density',(#80),#150);
#85=DESCRIPTIVE_REPRESENTATION_ITEM('Generic','Generic');
#86=PROPERTY_DEFINITION('material property','material name',#160);
#87=PROPERTY_DEFINITION('material property','density of part',#160);
#88=DATE_TIME_ROLE('creation_date');
#89=APPLIED_DATE_AND_TIME_ASSIGNMENT(#90,#88,(#160));
#90=DATE_AND_TIME(#91,#92);
#91=CALENDAR_DATE(2021,11,7);
#92=LOCAL_TIME(13,8,33.,#93);
#93=COORDINATED_UNIVERSAL_TIME_OFFSET(0,0,.BEHIND.);
#94=AXIS2_PLACEMENT_3D('placement',#129,#105,#106);
#95=AXIS2_PLACEMENT_3D('',#130,#107,#108);
#96=AXIS2_PLACEMENT_3D('',#132,#109,#110);
#97=AXIS2_PLACEMENT_3D('',#135,#112,#113);
#98=AXIS2_PLACEMENT_3D('',#136,#114,#115);
#99=AXIS2_PLACEMENT_3D('',#139,#116,#117);
#100=AXIS2_PLACEMENT_3D('',#140,#118,#119);
#101=AXIS2_PLACEMENT_3D('',#144,#121,#122);
#102=AXIS2_PLACEMENT_3D('',#145,#123,#124);
#103=AXIS2_PLACEMENT_3D('',#146,#125,#126);
#104=AXIS2_PLACEMENT_3D('',#147,#127,#128);
#105=DIRECTION('axis',(0.,0.,1.));
#106=DIRECTION('refdir',(1.,0.,0.));
#107=DIRECTION('center_axis',(0.,0.,1.));
#108=DIRECTION('ref_axis',(-1.,0.,0.));
#109=DIRECTION('center_axis',(0.,0.,-1.));
#110=DIRECTION('ref_axis',(-1.,0.,0.));
#111=DIRECTION('',(0.,0.,-1.));
#112=DIRECTION('center_axis',(0.,0.,-1.));
#113=DIRECTION('ref_axis',(-1.,0.,0.));
#114=DIRECTION('center_axis',(0.,0.,1.));
#115=DIRECTION('ref_axis',(1.,0.,0.));
#116=DIRECTION('center_axis',(0.,0.,1.));
#117=DIRECTION('ref_axis',(1.,0.,0.));
#118=DIRECTION('center_axis',(0.,0.,1.));
#119=DIRECTION('ref_axis',(1.,0.,0.));
#120=DIRECTION('',(0.,0.,-1.));
#121=DIRECTION('center_axis',(0.,0.,1.));
#122=DIRECTION('ref_axis',(1.,0.,0.));
#123=DIRECTION('center_axis',(0.,0.,1.));
#124=DIRECTION('ref_axis',(1.,0.,0.));
#125=DIRECTION('center_axis',(0.,0.,1.));
#126=DIRECTION('ref_axis',(1.,0.,0.));
#127=DIRECTION('center_axis',(0.,0.,1.));
#128=DIRECTION('ref_axis',(1.,0.,0.));
#129=CARTESIAN_POINT('',(0.,0.,0.));
#130=CARTESIAN_POINT('Origin',(0.,0.,0.));
#131=CARTESIAN_POINT('',(1.625,1.99005104861445E-16,3.));
#132=CARTESIAN_POINT('Origin',(0.,0.,3.));
#133=CARTESIAN_POINT('',(1.625,1.99005104861445E-16,0.));
#134=CARTESIAN_POINT('',(1.625,1.99005104861445E-16,0.));
#135=CARTESIAN_POINT('Origin',(0.,0.,0.));
#136=CARTESIAN_POINT('Origin',(0.,0.,0.));
#137=CARTESIAN_POINT('',(3.,0.,3.));
#138=CARTESIAN_POINT('',(-3.,-3.67394039744206E-16,3.));
#139=CARTESIAN_POINT('Origin',(0.,0.,3.));
#140=CARTESIAN_POINT('Origin',(0.,0.,3.));
#141=CARTESIAN_POINT('',(-3.,-3.67394039744206E-16,0.));
#142=CARTESIAN_POINT('',(-3.,-3.67394039744206E-16,0.));
#143=CARTESIAN_POINT('',(3.,0.,0.));
#144=CARTESIAN_POINT('Origin',(0.,0.,0.));
#145=CARTESIAN_POINT('Origin',(0.,0.,0.));
#146=CARTESIAN_POINT('Origin',(0.,0.,3.));
#147=CARTESIAN_POINT('Origin',(0.,0.,0.));
#148=UNCERTAINTY_MEASURE_WITH_UNIT(LENGTH_MEASURE(0.01),#152,
'DISTANCE_ACCURACY_VALUE',
'Maximum model space distance between geometric entities at asserted c
onnectivities');
#149=UNCERTAINTY_MEASURE_WITH_UNIT(LENGTH_MEASURE(0.01),#152,
'DISTANCE_ACCURACY_VALUE',
'Maximum model space distance between geometric entities at asserted c
onnectivities');
#150=(
GEOMETRIC_REPRESENTATION_CONTEXT(3)
GLOBAL_UNCERTAINTY_ASSIGNED_CONTEXT((#148))
GLOBAL_UNIT_ASSIGNED_CONTEXT((#152,#154,#155))
REPRESENTATION_CONTEXT('','3D')
);
#151=(
GEOMETRIC_REPRESENTATION_CONTEXT(3)
GLOBAL_UNCERTAINTY_ASSIGNED_CONTEXT((#149))
GLOBAL_UNIT_ASSIGNED_CONTEXT((#152,#154,#155))
REPRESENTATION_CONTEXT('','3D')
);
#152=(
LENGTH_UNIT()
NAMED_UNIT(*)
SI_UNIT(.MILLI.,.METRE.)
);
#153=(
LENGTH_UNIT()
NAMED_UNIT(*)
SI_UNIT(.CENTI.,.METRE.)
);
#154=(
NAMED_UNIT(*)
PLANE_ANGLE_UNIT()
SI_UNIT($,.RADIAN.)
);
#155=(
NAMED_UNIT(*)
SI_UNIT($,.STERADIAN.)
SOLID_ANGLE_UNIT()
);
#156=SHAPE_DEFINITION_REPRESENTATION(#157,#158);
#157=PRODUCT_DEFINITION_SHAPE('',$,#160);
#158=SHAPE_REPRESENTATION('',(#94),#150);
#159=PRODUCT_DEFINITION_CONTEXT('part definition',#164,'design');
#160=PRODUCT_DEFINITION('spacer','spacer',#161,#159);
#161=PRODUCT_DEFINITION_FORMATION('',$,#166);
#162=PRODUCT_RELATED_PRODUCT_CATEGORY('spacer','spacer',(#166));
#163=APPLICATION_PROTOCOL_DEFINITION('international standard',
'automotive_design',2009,#164);
#164=APPLICATION_CONTEXT(
'Core Data for Automotive Mechanical Design Process');
#165=PRODUCT_CONTEXT('part definition',#164,'mechanical');
#166=PRODUCT('spacer','spacer',$,(#165));
#167=PRESENTATION_STYLE_ASSIGNMENT((#168));
#168=SURFACE_STYLE_USAGE(.BOTH.,#171);
#169=SURFACE_STYLE_RENDERING_WITH_PROPERTIES($,#175,(#170));
#170=SURFACE_STYLE_TRANSPARENT(0.);
#171=SURFACE_SIDE_STYLE('',(#172,#169));
#172=SURFACE_STYLE_FILL_AREA(#173);
#173=FILL_AREA_STYLE('',(#174));
#174=FILL_AREA_STYLE_COLOUR('',#175);
#175=COLOUR_RGB('',0.749019607843137,0.749019607843137,0.749019607843137);
ENDSEC;
END-ISO-10303-21;
