0
SECTION
2
HEADER
9
$INSUNITS
70
4
9
$ACADVER
1
AC1014
9
$HANDSEED
5
FFFF
0
ENDSEC
0
SECTION
2
TABLES
0
TABLE
2
VPORT
5
8
100
AcDbSymbolTable
0
ENDTAB
0
TABLE
2
LTYPE
5
5
100
AcDbSymbolTable
0
LTYPE
5
14
100
AcDbSymbolTableRecord
100
AcDbLinetypeTableRecord
2
BYBLOCK
70
0
0
LTYPE
5
15
100
AcDbSymbolTableRecord
100
AcDbLinetypeTableRecord
2
BYLAYER
70
0
0
ENDTAB
0
TABLE
2
LAYER
5
2
100
AcDbSymbolTable
70
2
0
LAYER
5
50
100
AcDbSymbolTableRecord
100
AcDbLayerTableRecord
2
0
70
0
6
CONTINUOUS
0
ENDTAB
0
TABLE
2
STYLE
5
3
100
AcDbSymbolTable
70
1
0
STYLE
5
11
100
AcDbSymbolTableRecord
100
AcDbTextStyleTableRecord
2
STANDARD
70
0
0
ENDTAB
0
TABLE
2
VIEW
5
6
100
AcDbSymbolTable
70
0
0
ENDTAB
0
TABLE
2
UCS
5
7
100
AcDbSymbolTable
70
0
0
ENDTAB
0
TABLE
2
APPID
5
9
100
AcDbSymbolTable
70
2
0
APPID
5
12
100
AcDbSymbolTableRecord
100
AcDbRegAppTableRecord
2
ACAD
70
0
0
ENDTAB
0
TABLE
2
DIMSTYLE
5
A
100
AcDbSymbolTable
70
1
0
ENDTAB
0
TABLE
2
BLOCK_RECORD
5
1
100
AcDbSymbolTable
70
1
0
BLOCK_RECORD
5
1F
100
AcDbSymbolTableRecord
100
AcDbBlockTableRecord
2
*MODEL_SPACE
0
BLOCK_RECORD
5
1B
100
AcDbSymbolTableRecord
100
AcDbBlockTableRecord
2
*PAPER_SPACE
0
ENDTAB
0
ENDSEC
0
SECTION
2
BLOCKS
0
BLOCK
5
20
100
AcDbEntity
100
AcDbBlockBegin
2
*MODEL_SPACE
0
ENDBLK
5
21
100
AcDbEntity
100
AcDbBlockEnd
0
BLOCK
5
1C
100
AcDbEntity
100
AcDbBlockBegin
2
*PAPER_SPACE
0
ENDBLK
5
1D
100
AcDbEntity
100
AcDbBlockEnd
0
ENDSEC
0
SECTION
2
ENTITIES
0
LINE
5
100
100
AcDbEntity
8
0
100
AcDbLine
10
187.0999855995143
20
185.9792374521503
30
-1.0773108982675652e-05
11
149.09998790919434
21
185.9792374521503
31
-1.0773108982675659e-05
0
ARC
5
101
100
AcDbEntity
8
0
100
AcDbCircle
10
149.09998790919434
20
187.9792374521503
30
-1.0773108982675659e-05
40
1.9999999999999929
210
0
220
0
230
1
100
AcDbArc
50
180
51
270
0
LINE
5
102
100
AcDbEntity
8
0
100
AcDbLine
10
147.09998790919434
20
187.9792374521503
30
-1.0773108982675659e-05
11
147.09998790919434
21
221.97923745215033
31
-1.0773108982675657e-05
0
ARC
5
103
100
AcDbEntity
8
0
100
AcDbCircle
10
149.09998790919431
20
221.9792374521503
30
-1.0773108982675657e-05
40
2.0000000000000284
210
0
220
-0
230
1
100
AcDbArc
50
90
51
180
0
LINE
5
104
100
AcDbEntity
8
0
100
AcDbLine
10
149.09998790919431
20
223.9792374521503
30
-1.0773108982675657e-05
11
187.0999855995143
21
223.9792374521503
31
-1.077310898267565e-05
0
ARC
5
105
100
AcDbEntity
8
0
100
AcDbCircle
10
187.0999855995143
20
225.9792374521503
30
-1.077310898267565e-05
40
1.9999999999999929
210
0
220
0
230
1
100
AcDbArc
50
-90
51
0
0
LINE
5
106
100
AcDbEntity
8
0
100
AcDbLine
10
189.0999855995143
20
225.9792374521503
30
-1.077310898267565e-05
11
189.09998559951433
21
248.97919845581131
31
-1.0773108982675647e-05
0
ARC
5
107
100
AcDbEntity
8
0
100
AcDbCircle
10
187.0999855995143
20
248.97919845581131
30
-1.0773108982675647e-05
40
2.0000000000000284
210
0
220
0
230
1
100
AcDbArc
50
0
51
90
0
LINE
5
108
100
AcDbEntity
8
0
100
AcDbLine
10
187.0999855995143
20
250.97919845581129
30
-1.0773108982675647e-05
11
82.8729655399124
21
250.97919845581131
31
-1.0773108982675667e-05
0
ARC
5
109
100
AcDbEntity
8
0
100
AcDbCircle
10
82.8729655399124
20
248.97919845581131
30
-1.0773108982675667e-05
40
1.9999999999999929
210
0
220
-0
230
1
100
AcDbArc
50
90
51
165.52248803446611
0
ARC
5
110
100
AcDbEntity
8
0
100
AcDbCircle
10
78.999982189858414
20
249.9791984409143
30
-1.0773108982675667e-05
40
2.0000000000000639
210
0
220
0
230
1
100
AcDbArc
50
270.00000000000244
51
345.52248803443945
0
LINE
5
111
100
AcDbEntity
8
0
100
AcDbLine
10
78.9999821898585
20
247.97919844091425
30
-1.0773108982675667e-05
11
44.0999860916206
21
247.97919844091433
31
-1.0773108982675674e-05
0
ARC
5
112
100
AcDbEntity
8
0
100
AcDbCircle
10
44.0999860916206
20
245.97919844091427
30
-1.0773108982675674e-05
40
2.0000000000000284
210
0
220
-0
230
1
100
AcDbArc
50
90
51
180
0
LINE
5
113
100
AcDbEntity
8
0
100
AcDbLine
10
42.099986091620622
20
245.97919842564431
30
-1.0773108982675676e-05
11
42.099986694753397
21
166.97880966661401
31
-1.0773108982675679e-05
0
ARC
5
114
100
AcDbEntity
8
0
100
AcDbCircle
10
37.099986694753404
20
166.9788096284413
30
-1.0773108982675679e-05
40
5
210
0
220
0
230
1
100
AcDbArc
50
-90
51
0
0
LINE
5
115
100
AcDbEntity
8
0
100
AcDbLine
10
37.099986694753404
20
161.9788096284413
30
-1.0773108982675679e-05
11
32.099984831081805
21
161.97880962844121
31
-1.0773108982675681e-05
0
ARC
5
116
100
AcDbEntity
8
0
100
AcDbCircle
10
32.099984831081805
20
159.97880962844121
30
-1.0773108982675681e-05
40
1.9999999999999929
210
0
220
-0
230
1
100
AcDbArc
50
90
51
180
0
LINE
5
117
100
AcDbEntity
8
0
100
AcDbLine
10
30.099984831081791
20
159.97880962844121
30
-1.0773108982675681e-05
11
30.099984831081702
21
-225.02080152928869
31
-1.0773108982675701e-05
0
ARC
5
118
100
AcDbEntity
8
0
100
AcDbCircle
10
32.099984831081699
20
-225.02080152928869
30
-1.0773108982675701e-05
40
1.9999999999999973
210
0
220
0
230
1
100
AcDbArc
50
180
51
270.00000000000307
0
LINE
5
119
100
AcDbEntity
8
0
100
AcDbLine
10
32.099984831081805
20
-227.02080152928869
30
-1.0773108982675701e-05
11
80.099984831081798
21
-227.02080152928869
31
-1.0773108982675693e-05
0
ARC
5
120
100
AcDbEntity
8
0
100
AcDbCircle
10
80.099984831081699
20
-228.02080152928869
30
-1.0773108982675693e-05
40
1.0000000000000497
210
0
220
0
230
1
100
AcDbArc
50
0
51
89.999999999994301
0
LINE
5
121
100
AcDbEntity
8
0
100
AcDbLine
10
81.099984831081741
20
-228.02080152928869
30
-1.0773108982675693e-05
11
81.099984831081798
21
-229.02080152928869
31
-1.0773108982675693e-05
0
ARC
5
122
100
AcDbEntity
8
0
100
AcDbCircle
10
82.099984831081798
20
-229.02080152928869
30
-1.0773108982675693e-05
40
0.99999999999999645
210
0
220
0
230
1
100
AcDbArc
50
180
51
270
0
LINE
5
123
100
AcDbEntity
8
0
100
AcDbLine
10
82.099984831081798
20
-230.02080152928872
30
-1.0773108982675693e-05
11
187.0999855995143
21
-230.02080152928869
31
-1.0773108982675674e-05
0
ARC
5
124
100
AcDbEntity
8
0
100
AcDbCircle
10
187.0999855995143
20
-228.02080152928869
30
-1.0773108982675674e-05
40
1.9999999999999929
210
0
220
0
230
1
100
AcDbArc
50
-90
51
0
0
LINE
5
125
100
AcDbEntity
8
0
100
AcDbLine
10
189.0999855995143
20
-228.02080152928869
30
-1.0773108982675674e-05
11
189.09998559951433
21
0.97919845580559439
31
-1.077310898267566e-05
0
ARC
5
126
100
AcDbEntity
8
0
100
AcDbCircle
10
187.0999855995143
20
0.97919845580561216
30
-1.0773108982675662e-05
40
2.0000000000000284
210
-1.0587911840678604e-21
220
9.4039548065780328e-36
230
1
100
AcDbArc
50
0
51
90
0
LINE
5
127
100
AcDbEntity
8
0
100
AcDbLine
10
187.0999855995143
20
2.9791984558056139
30
-1.0773108982675662e-05
11
165.09998773038032
21
2.9791984558056051
31
-1.0773108982675664e-05
0
ARC
5
128
100
AcDbEntity
8
0
100
AcDbCircle
10
165.09998773038032
20
4.9791984558056068
30
-1.0773108982675664e-05
40
1.9999999999999929
210
-1.0587911840678792e-21
220
0
230
1
100
AcDbArc
50
180
51
270
0
LINE
5
129
100
AcDbEntity
8
0
100
AcDbLine
10
163.09998773038032
20
4.9791984558056068
30
-1.0773108982675667e-05
11
163.09998773038029
21
10.979235574604207
31
-1.0773108982675664e-05
0
ARC
5
130
100
AcDbEntity
8
0
100
AcDbCircle
10
165.09998773038032
20
10.979235574604207
30
-1.0773108982675664e-05
40
1.9999999999999929
210
0
220
-0
230
1
100
AcDbArc
50
90
51
180
0
LINE
5
131
100
AcDbEntity
8
0
100
AcDbLine
10
165.09998773038032
20
12.9792355746042
30
-1.0773108982675664e-05
11
187.0999855995143
21
12.979235574604209
31
-1.077310898267566e-05
0
ARC
5
132
100
AcDbEntity
8
0
100
AcDbCircle
10
187.0999855995143
20
14.979235574604211
30
-1.077310898267566e-05
40
2.0000000000000018
210
0
220
0
230
1
100
AcDbArc
50
-90
51
0
0
LINE
5
133
100
AcDbEntity
8
0
100
AcDbLine
10
189.0999855995143
20
14.979235574604211
30
-1.077310898267566e-05
11
189.09998559951433
21
75.979235574604246
31
-1.0773108982675659e-05
0
ARC
5
134
100
AcDbEntity
8
0
100
AcDbCircle
10
187.0999855995143
20
75.979235574604246
30
-1.0773108982675659e-05
40
2.0000000000000284
210
0
220
0
230
1
100
AcDbArc
50
0
51
90
0
LINE
5
135
100
AcDbEntity
8
0
100
AcDbLine
10
187.0999855995143
20
77.979235574604246
30
-1.0773108982675659e-05
11
171.09998790919431
21
77.979235574604246
31
-1.077310898267566e-05
0
ARC
5
136
100
AcDbEntity
8
0
100
AcDbCircle
10
171.09998790919431
20
79.979235574604246
30
-1.077310898267566e-05
40
1.9999999999999929
210
0
220
0
230
1
100
AcDbArc
50
180
51
270
0
LINE
5
137
100
AcDbEntity
8
0
100
AcDbLine
10
169.09998790919431
20
79.979235574604232
30
-1.077310898267566e-05
11
169.09998790919431
21
117.97923745215051
31
-1.0773108982675659e-05
0
ARC
5
138
100
AcDbEntity
8
0
100
AcDbCircle
10
171.09998790919431
20
117.97923745215051
30
-1.0773108982675659e-05
40
1.9999999999999929
210
0
220
-0
230
1
100
AcDbArc
50
90
51
180
0
LINE
5
139
100
AcDbEntity
8
0
100
AcDbLine
10
171.09998790919431
20
119.9792374521505
30
-1.0773108982675659e-05
11
187.0999855995143
21
119.9792374521505
31
-1.0773108982675657e-05
0
ARC
5
140
100
AcDbEntity
8
0
100
AcDbCircle
10
187.0999855995143
20
121.9792374521505
30
-1.0773108982675657e-05
40
1.9999999999999929
210
0
220
0
230
1
100
AcDbArc
50
-90
51
0
0
LINE
5
141
100
AcDbEntity
8
0
100
AcDbLine
10
189.0999855995143
20
121.9792374521505
30
-1.0773108982675654e-05
11
189.09998559951433
21
183.9792374521503
31
-1.0773108982675652e-05
0
ARC
5
142
100
AcDbEntity
8
0
100
AcDbCircle
10
187.0999855995143
20
183.9792374521503
30
-1.0773108982675652e-05
40
2.0000000000000284
210
0
220
0
230
1
100
AcDbArc
50
0
51
90
0
LWPOLYLINE
5
143
100
AcDbEntity
8
0
100
AcDbPolyline
90
43
70
1
43
0.0
10
149.09998790919434
20
185.9792374521503
10
187.0999855995143
20
185.97923745215036
42
-0.41421356237310542
10
189.09998559951433
20
183.9792374521503
10
189.09998559951424
20
121.9792374521505
42
-0.41421356237309764
10
187.0999855995143
20
119.9792374521505
10
171.09998790919431
20
119.9792374521505
42
0.41421356237309503
10
169.09998790919431
20
117.97923745215051
10
169.09998790919431
20
79.979235574604232
42
0.41421356237309892
10
171.09998790919434
20
77.979235574604246
10
187.0999855995143
20
77.979235574604274
42
-0.41421356237309631
10
189.09998559951433
20
75.979235574604246
10
189.0999855995143
20
14.979235574604211
42
-0.41421356237309664
10
187.0999855995143
20
12.979235574604209
10
165.09998773038032
20
12.979235574604198
42
0.41421356237309404
10
163.09998773038029
20
10.979235574604207
10
163.09998773038032
20
4.9791984558056068
42
0.41421356237309437
10
165.09998773038032
20
2.9791984558056051
10
187.0999855995143
20
2.9791984558056517
42
-0.41421356237309931
10
189.09998559951433
20
0.97919845580559439
10
189.0999855995143
20
-228.02080152928869
42
-0.41421356237309503
10
187.0999855995143
20
-230.02080152928869
10
82.099984831081798
20
-230.02080152928869
42
-0.41421356237308982
10
81.099984831081798
20
-229.02080152928869
10
81.099984831081741
20
-228.02080152928869
42
0.41421356237304818
10
80.099984831081798
20
-227.02080152928869
10
32.099984831081798
20
-227.02080152928872
42
-0.41421356237311713
10
30.099984831081702
20
-225.02080152928869
10
30.099984831081777
20
159.97880962844121
42
-0.41421356237309437
10
32.099984831081805
20
161.97880962844121
10
37.099986694753404
20
161.9788096284413
42
0.41421356460920006
10
42.099986694753397
20
166.97880966661401
10
42.099986091620579
20
245.97919842564431
42
-0.41421356460932024
10
44.099986091620593
20
247.97919844091433
10
78.999982189858514
20
247.97919844091425
42
0.34199871419362904
10
80.936473864885386
20
249.47919844836233
42
-0.34199871419378597
10
82.8729655399124
20
250.97919845581131
10
187.0999855995143
20
250.97919845581134
42
-0.4142135623730846
10
189.09998559951433
20
248.97919845581131
10
189.0999855995143
20
225.9792374521503
42
-0.41421356237309503
10
187.0999855995143
20
223.9792374521503
10
149.09998790919431
20
223.97923745215027
42
0.41421356237308982
10
147.09998790919434
20
221.97923745215033
10
147.09998790919434
20
187.9792374521503
42
0.41421356237309503
0
LWPOLYLINE
5
144
100
AcDbEntity
8
0
100
AcDbPolyline
90
43
70
1
43
0.0
10
80.099984831081798
20
-227.02080152928869
10
32.099984831081798
20
-227.02080152928872
42
-0.41421356237311713
10
30.099984831081702
20
-225.02080152928869
10
30.099984831081777
20
159.97880962844121
42
-0.41421356237309437
10
32.099984831081805
20
161.97880962844121
10
37.099986694753404
20
161.9788096284413
42
0.41421356460920006
10
42.099986694753397
20
166.97880966661401
10
42.099986091620579
20
245.97919842564431
42
-0.41421356460932024
10
44.099986091620593
20
247.97919844091433
10
78.999982189858514
20
247.97919844091425
42
0.34199871419362782
10
80.936473864885386
20
249.47919844836233
42
-0.34199871419378719
10
82.8729655399124
20
250.97919845581131
10
187.0999855995143
20
250.97919845581134
42
-0.4142135623730846
10
189.09998559951433
20
248.97919845581131
10
189.0999855995143
20
225.9792374521503
42
-0.41421356237309503
10
187.0999855995143
20
223.9792374521503
10
149.09998790919431
20
223.97923745215027
42
0.41421356237308982
10
147.09998790919434
20
221.97923745215033
10
147.09998790919434
20
187.9792374521503
42
0.41421356237309503
10
149.09998790919434
20
185.9792374521503
10
187.0999855995143
20
185.97923745215036
42
-0.41421356237310542
10
189.09998559951433
20
183.9792374521503
10
189.09998559951424
20
121.9792374521505
42
-0.41421356237309764
10
187.0999855995143
20
119.9792374521505
10
171.09998790919431
20
119.9792374521505
42
0.41421356237309503
10
169.09998790919431
20
117.97923745215051
10
169.09998790919431
20
79.979235574604232
42
0.41421356237309892
10
171.09998790919434
20
77.979235574604246
10
187.0999855995143
20
77.979235574604274
42
-0.41421356237309631
10
189.09998559951433
20
75.979235574604246
10
189.0999855995143
20
14.979235574604211
42
-0.41421356237309664
10
187.0999855995143
20
12.979235574604209
10
165.09998773038032
20
12.979235574604198
42
0.41421356237309404
10
163.09998773038029
20
10.979235574604207
10
163.09998773038032
20
4.9791984558056068
42
0.41421356237309437
10
165.09998773038032
20
2.9791984558056051
10
187.0999855995143
20
2.9791984558056517
42
-0.41421356237309931
10
189.09998559951433
20
0.97919845580559439
10
189.0999855995143
20
-228.02080152928869
42
-0.41421356237309503
10
187.0999855995143
20
-230.02080152928869
10
82.099984831081798
20
-230.02080152928869
42
-0.41421356237308982
10
81.099984831081798
20
-229.02080152928869
10
81.099984831081741
20
-228.02080152928869
42
0.41421356237304818
0
ENDSEC
0
SECTION
2
OBJECTS
0
DICTIONARY
5
C
100
AcDbDictionary
3
ACAD_GROUP
350
D
3
ACAD_MLINESTYLE
350
17
0
DICTIONARY
5
D
100
AcDbDictionary
0
DICTIONARY
5
1A
330
C
100
AcDbDictionary
0
DICTIONARY
5
17
100
AcDbDictionary
0
ENDSEC
0
EOF
