0
SECTION
2
HEADER
9
$INSUNITS
70
4
9
$ACADVER
1
AC1014
9
$HANDSEED
5
FFFF
0
ENDSEC
0
SECTION
2
TABLES
0
TABLE
2
VPORT
5
8
100
AcDbSymbolTable
0
ENDTAB
0
TABLE
2
LTYPE
5
5
100
AcDbSymbolTable
0
LTYPE
5
14
100
AcDbSymbolTableRecord
100
AcDbLinetypeTableRecord
2
BYBLOCK
70
0
0
LTYPE
5
15
100
AcDbSymbolTableRecord
100
AcDbLinetypeTableRecord
2
BYLAYER
70
0
0
ENDTAB
0
TABLE
2
LAYER
5
2
100
AcDbSymbolTable
70
2
0
LAYER
5
50
100
AcDbSymbolTableRecord
100
AcDbLayerTableRecord
2
0
70
0
6
CONTINUOUS
0
ENDTAB
0
TABLE
2
STYLE
5
3
100
AcDbSymbolTable
70
1
0
STYLE
5
11
100
AcDbSymbolTableRecord
100
AcDbTextStyleTableRecord
2
STANDARD
70
0
0
ENDTAB
0
TABLE
2
VIEW
5
6
100
AcDbSymbolTable
70
0
0
ENDTAB
0
TABLE
2
UCS
5
7
100
AcDbSymbolTable
70
0
0
ENDTAB
0
TABLE
2
APPID
5
9
100
AcDbSymbolTable
70
2
0
APPID
5
12
100
AcDbSymbolTableRecord
100
AcDbRegAppTableRecord
2
ACAD
70
0
0
ENDTAB
0
TABLE
2
DIMSTYLE
5
A
100
AcDbSymbolTable
70
1
0
ENDTAB
0
TABLE
2
BLOCK_RECORD
5
1
100
AcDbSymbolTable
70
1
0
BLOCK_RECORD
5
1F
100
AcDbSymbolTableRecord
100
AcDbBlockTableRecord
2
*MODEL_SPACE
0
BLOCK_RECORD
5
1B
100
AcDbSymbolTableRecord
100
AcDbBlockTableRecord
2
*PAPER_SPACE
0
ENDTAB
0
ENDSEC
0
SECTION
2
BLOCKS
0
BLOCK
5
20
100
AcDbEntity
100
AcDbBlockBegin
2
*MODEL_SPACE
0
ENDBLK
5
21
100
AcDbEntity
100
AcDbBlockEnd
0
BLOCK
5
1C
100
AcDbEntity
100
AcDbBlockBegin
2
*PAPER_SPACE
0
ENDBLK
5
1D
100
AcDbEntity
100
AcDbBlockEnd
0
ENDSEC
0
SECTION
2
ENTITIES
0
ARC
5
100
100
AcDbEntity
8
0
100
AcDbCircle
10
148.00000000000168
20
63.023445606223305
30
1.8299751616268622e-05
40
1.9999999999999929
210
0
220
0
230
1
100
AcDbArc
50
0
51
89.999999999997556
0
LINE
5
101
100
AcDbEntity
8
0
100
AcDbLine
10
148.00000000000176
20
65.023445606223333
30
1.8299751616268622e-05
11
51.000000000001151
21
65.023445606223831
31
1.8299751616268622e-05
0
LINE
5
102
100
AcDbEntity
8
0
100
AcDbLine
10
51.000000000001151
20
65.023445606223831
30
1.8299751616268622e-05
11
51.000000000001144
21
68.023445606226431
31
1.8299751616268622e-05
0
LINE
5
103
100
AcDbEntity
8
0
100
AcDbLine
10
51.000000000001144
20
68.023445606226431
30
1.8299751616268622e-05
11
31.000000000001169
21
68.02344560622636
31
1.8299751616268622e-05
0
LINE
5
104
100
AcDbEntity
8
0
100
AcDbLine
10
31.000000000001169
20
68.02344560622636
30
1.8299751616268622e-05
11
31.000000000001151
21
65.023445606223973
31
1.8299751616268622e-05
0
LINE
5
105
100
AcDbEntity
8
0
100
AcDbLine
10
31.000000000001151
20
65.023445606223973
30
1.8299751616268622e-05
11
-71.000000000000739
21
65.023445606224612
31
1.8299751616268622e-05
0
LINE
5
106
100
AcDbEntity
8
0
100
AcDbLine
10
-71.000000000000739
20
65.023445606224612
30
1.8299751616268622e-05
11
-71.000000000000753
21
68.023445606225934
31
1.8299751616268622e-05
0
LINE
5
107
100
AcDbEntity
8
0
100
AcDbLine
10
-71.000000000000753
20
68.023445606225934
30
1.8299751616268622e-05
11
-91.000000000000625
21
68.023445606225863
31
1.8299751616268622e-05
0
LINE
5
108
100
AcDbEntity
8
0
100
AcDbLine
10
-91.000000000000625
20
68.023445606225863
30
1.8299751616268622e-05
11
-91.000000000000639
21
65.023445606224755
31
1.8299751616268622e-05
0
LINE
5
109
100
AcDbEntity
8
0
100
AcDbLine
10
-91.000000000000639
20
65.023445606224755
30
1.8299751616268622e-05
11
-188.00000000000082
21
65.023445606225252
31
1.8299751616268622e-05
0
ARC
5
110
100
AcDbEntity
8
0
100
AcDbCircle
10
-188.00000000000085
20
63.023445606225295
30
1.8299751616268622e-05
40
1.9999999999999574
210
0
220
-0
230
1
100
AcDbArc
50
89.99999999999919
51
180
0
LINE
5
111
100
AcDbEntity
8
0
100
AcDbLine
10
-190.00000000000085
20
63.023445606225366
30
1.8299751616268622e-05
11
-190.00000000000051
21
-8.9765548706046161
31
1.8299751616268622e-05
0
LINE
5
112
100
AcDbEntity
8
0
100
AcDbLine
10
-190.00000000000051
20
-8.9765548706046161
30
1.8299751616268622e-05
11
-193.00000000000051
21
-8.9765548706046161
31
1.8299751616268622e-05
0
LINE
5
113
100
AcDbEntity
8
0
100
AcDbLine
10
-193.00000000000051
20
-8.9765548706046161
30
1.8299751616268622e-05
11
-193.00000000000057
21
-28.976554870604616
31
1.8299751616268622e-05
0
LINE
5
114
100
AcDbEntity
8
0
100
AcDbLine
10
-193.00000000000057
20
-28.976554870604616
30
1.8299751616268622e-05
11
-190.00000000000057
21
-28.976554870604616
31
1.8299751616268622e-05
0
LINE
5
115
100
AcDbEntity
8
0
100
AcDbLine
10
-190.00000000000057
20
-28.976554870604616
30
1.8299751616268622e-05
11
-190.00000000000102
21
-158.97655439377468
31
1.8299751616268622e-05
0
LINE
5
116
100
AcDbEntity
8
0
100
AcDbLine
10
-190.00000000000102
20
-158.97655439377468
30
1.8299751616268622e-05
11
-193.00000000000102
21
-158.97655439377468
31
1.8299751616268622e-05
0
LINE
5
117
100
AcDbEntity
8
0
100
AcDbLine
10
-193.00000000000102
20
-158.97655439377468
30
1.8299751616268622e-05
11
-193.00000000000111
21
-178.97655439377462
31
1.8299751616268622e-05
0
LINE
5
118
100
AcDbEntity
8
0
100
AcDbLine
10
-193.00000000000111
20
-178.97655439377462
30
1.8299751616268622e-05
11
-190.00000000000111
21
-178.97655439377462
31
1.8299751616268622e-05
0
LINE
5
119
100
AcDbEntity
8
0
100
AcDbLine
10
-190.00000000000111
20
-178.97655439377462
30
1.8299751616268622e-05
11
-190.00000000000057
21
-308.97655487060365
31
1.8299751616268622e-05
0
LINE
5
120
100
AcDbEntity
8
0
100
AcDbLine
10
-190.00000000000057
20
-308.97655487060365
30
1.8299751616268622e-05
11
-193.00000000000057
21
-308.97655487060365
31
1.8299751616268622e-05
0
LINE
5
121
100
AcDbEntity
8
0
100
AcDbLine
10
-193.00000000000057
20
-308.97655487060365
30
1.8299751616268622e-05
11
-193.00000000000165
21
-328.97655487060314
31
1.8299751616268622e-05
0
LINE
5
122
100
AcDbEntity
8
0
100
AcDbLine
10
-193.00000000000165
20
-328.97655487060314
30
1.8299751616268622e-05
11
-190.00000000000165
21
-328.97655487060325
31
1.8299751616268622e-05
0
LINE
5
123
100
AcDbEntity
8
0
100
AcDbLine
10
-190.00000000000165
20
-328.97655487060325
30
1.8299751616268622e-05
11
-190.00000000000045
21
-372.97654819489514
31
1.8299751616268622e-05
0
ARC
5
124
100
AcDbEntity
8
0
100
AcDbCircle
10
-188.00000000000085
20
-372.97654819489514
30
1.8299751616268622e-05
40
1.9999999999996021
210
0
220
0
230
1
100
AcDbArc
50
180
51
269.99999999999756
0
LINE
5
125
100
AcDbEntity
8
0
100
AcDbLine
10
-188.00000000000094
20
-374.9765481948952
30
1.8299751616268622e-05
11
148.00000000000171
21
-374.97654819489725
31
1.8299751616268622e-05
0
ARC
5
126
100
AcDbEntity
8
0
100
AcDbCircle
10
148.00000000000171
20
-372.97654819489719
30
1.8299751616268622e-05
40
2.0000000000000284
210
0
220
0
230
1
100
AcDbArc
50
-90
51
0
0
LINE
5
127
100
AcDbEntity
8
0
100
AcDbLine
10
150.00000000000171
20
-372.97654819489719
30
1.8299751616268622e-05
11
150.00000000000136
21
-328.97655487060331
31
1.8299751616268622e-05
0
LINE
5
128
100
AcDbEntity
8
0
100
AcDbLine
10
150.00000000000136
20
-328.97655487060331
30
1.8299751616268622e-05
11
153.00000000000136
21
-328.97655487060308
31
1.8299751616268622e-05
0
LINE
5
129
100
AcDbEntity
8
0
100
AcDbLine
10
153.00000000000136
20
-328.97655487060308
30
1.8299751616268622e-05
11
153.00000000000142
21
-308.97655487060285
31
1.8299751580741486e-05
0
LINE
5
130
100
AcDbEntity
8
0
100
AcDbLine
10
153.00000000000142
20
-308.97655487060285
30
1.8299751580741486e-05
11
150.00000000000142
21
-308.97655487060285
31
1.8299751580741486e-05
0
LINE
5
131
100
AcDbEntity
8
0
100
AcDbLine
10
150.00000000000142
20
-308.97655487060285
30
1.8299751580741486e-05
11
150.00000000000088
21
-178.97655439377479
31
1.8299751616268622e-05
0
LINE
5
132
100
AcDbEntity
8
0
100
AcDbLine
10
150.00000000000088
20
-178.97655439377479
30
1.8299751616268622e-05
11
153.00000000000091
21
-178.97655439377485
31
1.8299751616268622e-05
0
LINE
5
133
100
AcDbEntity
8
0
100
AcDbLine
10
153.00000000000091
20
-178.97655439377485
30
1.8299751616268622e-05
11
153.00000000000097
21
-158.97655439377485
31
1.8299751616268622e-05
0
LINE
5
134
100
AcDbEntity
8
0
100
AcDbLine
10
153.00000000000097
20
-158.97655439377485
30
1.8299751616268622e-05
11
150.00000000000097
21
-158.97655439377479
31
1.8299751616268622e-05
0
LINE
5
135
100
AcDbEntity
8
0
100
AcDbLine
10
150.00000000000097
20
-158.97655439377479
30
1.8299751616268622e-05
11
150.00000000000142
21
-28.9765548706049
31
1.8299751616268622e-05
0
LINE
5
136
100
AcDbEntity
8
0
100
AcDbLine
10
150.00000000000142
20
-28.9765548706049
30
1.8299751616268622e-05
11
153.00000000000142
21
-28.976554870604829
31
1.8299751616268622e-05
0
LINE
5
137
100
AcDbEntity
8
0
100
AcDbLine
10
153.00000000000142
20
-28.976554870604829
30
1.8299751616268622e-05
11
153.00000000000151
21
-8.9765548706048293
31
1.8299751616268622e-05
0
LINE
5
138
100
AcDbEntity
8
0
100
AcDbLine
10
153.00000000000151
20
-8.9765548706048293
30
1.8299751616268622e-05
11
150.00000000000148
21
-8.9765548706049003
31
1.8299751616268622e-05
0
LINE
5
139
100
AcDbEntity
8
0
100
AcDbLine
10
150.00000000000148
20
-8.9765548706049003
30
1.8299751616268622e-05
11
150.00000000000168
21
63.023445606223234
31
1.8299751616268622e-05
0
LWPOLYLINE
5
140
100
AcDbEntity
8
0
100
AcDbPolyline
90
40
70
1
43
0.0
10
148.00000000000171
20
65.023445606223362
42
-0.41421356237309115
10
150.00000000000168
20
63.023445606223369
10
150.00000000000148
20
-8.9765548706048186
10
153.00000000000151
20
-8.9765548706047582
10
153.00000000000142
20
-28.976554870604765
10
150.00000000000142
20
-28.976554870604794
10
150.00000000000097
20
-158.97655439377471
10
153.00000000000097
20
-158.97655439377476
10
153.00000000000091
20
-178.97655439377476
10
150.00000000000088
20
-178.97655439377473
10
150.00000000000142
20
-308.97655487060274
10
153.00000000000142
20
-308.9765548706028
10
153.00000000000136
20
-328.97655487060291
10
150.00000000000136
20
-328.97655487060325
10
150.00000000000168
20
-372.97654819489719
42
-0.41421356237310542
10
148.00000000000176
20
-374.97654819489725
10
-188.00000000000091
20
-374.97654819489469
42
-0.41421356237310542
10
-190.00000000000045
20
-372.97654819489509
10
-190.00000000000165
20
-328.9765548706032
10
-193.00000000000165
20
-328.97655487060308
10
-193.00000000000057
20
-308.97655487060359
10
-190.00000000000057
20
-308.97655487060359
10
-190.00000000000111
20
-178.97655439377456
10
-193.00000000000111
20
-178.97655439377456
10
-193.00000000000102
20
-158.97655439377456
10
-190.00000000000102
20
-158.97655439377456
10
-190.00000000000057
20
-28.976554870604552
10
-193.00000000000057
20
-28.976554870604545
10
-193.00000000000051
20
-8.9765548706045344
10
-190.00000000000051
20
-8.976554870604545
10
-190.00000000000088
20
63.023445606225373
42
-0.41421356237309764
10
-188.00000000000082
20
65.02344560622538
10
-91.000000000000639
20
65.023445606224826
10
-91.000000000000625
20
68.023445606225934
10
-71.000000000000753
20
68.023445606226005
10
-71.000000000000739
20
65.023445606224627
10
31.000000000001151
20
65.023445606224044
10
31.000000000001169
20
68.023445606226431
10
51.000000000001144
20
68.023445606226502
10
51.000000000001165
20
65.023445606223959
0
LWPOLYLINE
5
141
100
AcDbEntity
8
0
100
AcDbPolyline
90
40
70
1
43
0.0
10
-91.000000000000625
20
68.023445606225934
10
-71.000000000000753
20
68.023445606226005
10
-71.000000000000739
20
65.023445606224627
10
31.000000000001151
20
65.023445606224044
10
31.000000000001169
20
68.023445606226431
10
51.000000000001144
20
68.023445606226502
10
51.000000000001165
20
65.023445606223959
10
148.00000000000171
20
65.023445606223362
42
-0.41421356237309115
10
150.00000000000168
20
63.023445606223369
10
150.00000000000148
20
-8.9765548706048186
10
153.00000000000151
20
-8.9765548706047582
10
153.00000000000142
20
-28.976554870604765
10
150.00000000000142
20
-28.976554870604794
10
150.00000000000097
20
-158.97655439377471
10
153.00000000000097
20
-158.97655439377476
10
153.00000000000091
20
-178.97655439377476
10
150.00000000000088
20
-178.97655439377473
10
150.00000000000142
20
-308.97655487060274
10
153.00000000000142
20
-308.9765548706028
10
153.00000000000136
20
-328.97655487060291
10
150.00000000000136
20
-328.97655487060325
10
150.00000000000168
20
-372.97654819489719
42
-0.41421356237310025
10
148.00000000000176
20
-374.97654819489725
10
-188.00000000000091
20
-374.97654819489469
42
-0.41421356237310542
10
-190.00000000000045
20
-372.97654819489509
10
-190.00000000000165
20
-328.9765548706032
10
-193.00000000000165
20
-328.97655487060308
10
-193.00000000000057
20
-308.97655487060359
10
-190.00000000000057
20
-308.97655487060359
10
-190.00000000000111
20
-178.97655439377456
10
-193.00000000000111
20
-178.97655439377456
10
-193.00000000000102
20
-158.97655439377456
10
-190.00000000000102
20
-158.97655439377456
10
-190.00000000000057
20
-28.976554870604552
10
-193.00000000000057
20
-28.976554870604545
10
-193.00000000000051
20
-8.9765548706045344
10
-190.00000000000051
20
-8.976554870604545
10
-190.00000000000088
20
63.023445606225373
42
-0.41421356237309764
10
-188.00000000000082
20
65.02344560622538
10
-91.000000000000639
20
65.023445606224826
0
ENDSEC
0
SECTION
2
OBJECTS
0
DICTIONARY
5
C
100
AcDbDictionary
3
ACAD_GROUP
350
D
3
ACAD_MLINESTYLE
350
17
0
DICTIONARY
5
D
100
AcDbDictionary
0
DICTIONARY
5
1A
330
C
100
AcDbDictionary
0
DICTIONARY
5
17
100
AcDbDictionary
0
ENDSEC
0
EOF
