0
SECTION
2
HEADER
9
$INSUNITS
70
4
9
$ACADVER
1
AC1014
9
$HANDSEED
5
FFFF
0
ENDSEC
0
SECTION
2
TABLES
0
TABLE
2
VPORT
5
8
100
AcDbSymbolTable
0
ENDTAB
0
TABLE
2
LTYPE
5
5
100
AcDbSymbolTable
0
LTYPE
5
14
100
AcDbSymbolTableRecord
100
AcDbLinetypeTableRecord
2
BYBLOCK
70
0
0
LTYPE
5
15
100
AcDbSymbolTableRecord
100
AcDbLinetypeTableRecord
2
BYLAYER
70
0
0
ENDTAB
0
TABLE
2
LAYER
5
2
100
AcDbSymbolTable
70
2
0
LAYER
5
50
100
AcDbSymbolTableRecord
100
AcDbLayerTableRecord
2
0
70
0
6
CONTINUOUS
0
ENDTAB
0
TABLE
2
STYLE
5
3
100
AcDbSymbolTable
70
1
0
STYLE
5
11
100
AcDbSymbolTableRecord
100
AcDbTextStyleTableRecord
2
STANDARD
70
0
0
ENDTAB
0
TABLE
2
VIEW
5
6
100
AcDbSymbolTable
70
0
0
ENDTAB
0
TABLE
2
UCS
5
7
100
AcDbSymbolTable
70
0
0
ENDTAB
0
TABLE
2
APPID
5
9
100
AcDbSymbolTable
70
2
0
APPID
5
12
100
AcDbSymbolTableRecord
100
AcDbRegAppTableRecord
2
ACAD
70
0
0
ENDTAB
0
TABLE
2
DIMSTYLE
5
A
100
AcDbSymbolTable
70
1
0
ENDTAB
0
TABLE
2
BLOCK_RECORD
5
1
100
AcDbSymbolTable
70
1
0
BLOCK_RECORD
5
1F
100
AcDbSymbolTableRecord
100
AcDbBlockTableRecord
2
*MODEL_SPACE
0
BLOCK_RECORD
5
1B
100
AcDbSymbolTableRecord
100
AcDbBlockTableRecord
2
*PAPER_SPACE
0
ENDTAB
0
ENDSEC
0
SECTION
2
BLOCKS
0
BLOCK
5
20
100
AcDbEntity
100
AcDbBlockBegin
2
*MODEL_SPACE
0
ENDBLK
5
21
100
AcDbEntity
100
AcDbBlockEnd
0
BLOCK
5
1C
100
AcDbEntity
100
AcDbBlockBegin
2
*PAPER_SPACE
0
ENDBLK
5
1D
100
AcDbEntity
100
AcDbBlockEnd
0
ENDSEC
0
SECTION
2
ENTITIES
0
LWPOLYLINE
5
100
100
AcDbEntity
8
0
100
AcDbPolyline
90
24
70
1
43
0.0
10
193.00000035018385
20
1.9792373765212545
42
-0.41421356237309503
10
191.00000035018385
20
-0.020762623478738362
10
152.10000035018183
20
-0.020762623478773889
42
-0.41421356237309503
10
150.1000003501818
20
1.9792373765212545
10
150.1000003501818
20
7.1792373765233464
42
0.41421356237309503
10
148.1000003501818
20
9.1792373765233748
10
-108.0999996498182
20
9.1792373765233037
42
0.41421356237309503
10
-110.09999964981823
20
7.1792373765233108
10
-110.09999964981823
20
1.979237376521219
42
-0.41421356237309503
10
-112.09999964981822
20
-0.020762623478773889
10
-150.9999996498203
20
-0.020762623478773889
42
-0.41421356237308982
10
-152.99999964982027
20
1.9792373765211835
10
-152.99999964982027
20
267.97919922954856
42
-0.41421356237308982
10
-150.99999964982032
20
269.97919922954856
10
-50.999999649817632
20
269.97919922954856
10
-50.999999649817632
20
266.97919922954856
10
-30.999999649817731
20
266.97919922954856
10
-30.999999649817738
20
269.97919922954856
10
71.00000035018428
20
269.97919922954856
10
71.00000035018428
20
266.97919922954856
10
91.00000035018418
20
266.97919922954856
10
91.00000035018418
20
269.97919922954856
10
191.0000003501838
20
269.97919922954861
42
-0.41421356237309503
10
193.00000035018377
20
267.97919922954861
0
CIRCLE
5
101
100
AcDbEntity
8
0
100
AcDbCircle
10
-110.17318654251017
20
88.821103689320864
30
7.1054273576010019e-14
40
2.6999999999999957
210
1.2670517316600186e-16
220
-5.0571830023150779e-49
230
1
0
CIRCLE
5
102
100
AcDbEntity
8
0
100
AcDbCircle
10
-80.103764678274771
20
88.821103689320864
30
7.1054273576010019e-14
40
2.6999999999999957
210
1.2670517316600186e-16
220
-5.0571830023150779e-49
230
1
0
CIRCLE
5
103
100
AcDbEntity
8
0
100
AcDbCircle
10
120.16519434782886
20
88.821103689320864
30
1.4210854715202004e-13
40
2.6999999999999957
210
-1.8909159828293044e-16
220
-1.1263362421135695e-48
230
1
0
CIRCLE
5
104
100
AcDbEntity
8
0
100
AcDbCircle
10
150.17539324606474
20
88.821103689320879
30
7.1054273576010019e-14
40
2.7000000000000135
210
6.0035062387894136e-16
220
4.1545274987842019e-46
230
1
0
LWPOLYLINE
5
105
100
AcDbEntity
8
0
100
AcDbPolyline
90
24
70
1
43
0.0
10
-50.999999649817632
20
266.97919922954856
10
-30.999999649817731
20
266.97919922954856
10
-30.999999649817738
20
269.97919922954856
10
71.00000035018428
20
269.97919922954856
10
71.00000035018428
20
266.97919922954856
10
91.00000035018418
20
266.97919922954856
10
91.00000035018418
20
269.97919922954856
10
191.0000003501838
20
269.97919922954861
42
-0.41421356237309503
10
193.00000035018377
20
267.97919922954861
10
193.00000035018385
20
1.9792373765212545
42
-0.41421356237309503
10
191.00000035018385
20
-0.020762623478738362
10
152.10000035018183
20
-0.020762623478773889
42
-0.41421356237309503
10
150.1000003501818
20
1.9792373765212545
10
150.1000003501818
20
7.1792373765233464
42
0.41421356237309503
10
148.1000003501818
20
9.1792373765233748
10
-108.0999996498182
20
9.1792373765233037
42
0.41421356237309503
10
-110.09999964981823
20
7.1792373765233108
10
-110.09999964981823
20
1.979237376521219
42
-0.41421356237309503
10
-112.09999964981822
20
-0.020762623478773889
10
-150.9999996498203
20
-0.020762623478773889
42
-0.41421356237308982
10
-152.99999964982027
20
1.9792373765211835
10
-152.99999964982027
20
267.97919922954856
42
-0.41421356237308982
10
-150.99999964982032
20
269.97919922954856
10
-50.999999649817632
20
269.97919922954856
0
CIRCLE
5
106
100
AcDbEntity
8
0
100
AcDbCircle
10
120.16519434782886
20
88.821103689320864
30
1.4210854715202004e-13
40
2.6999999999999957
210
-1.8909159828292652e-16
220
-1.1263362421135695e-48
230
1
0
CIRCLE
5
107
100
AcDbEntity
8
0
100
AcDbCircle
10
150.17539324606474
20
88.821103689320879
30
7.1054273576010019e-14
40
2.7000000000000135
210
6.0035062387894234e-16
220
4.1545274987842019e-46
230
1
0
CIRCLE
5
108
100
AcDbEntity
8
0
100
AcDbCircle
10
-110.17318654251017
20
88.821103689320864
30
7.1054273576010019e-14
40
2.6999999999999957
210
1.2670517316600183e-16
220
-5.0571830023150779e-49
230
1
0
CIRCLE
5
109
100
AcDbEntity
8
0
100
AcDbCircle
10
-80.103764678274771
20
88.821103689320864
30
7.1054273576010019e-14
40
2.6999999999999957
210
1.2670517316600183e-16
220
-5.0571830023150779e-49
230
1
0
ENDSEC
0
SECTION
2
OBJECTS
0
DICTIONARY
5
C
100
AcDbDictionary
3
ACAD_GROUP
350
D
3
ACAD_MLINESTYLE
350
17
0
DICTIONARY
5
D
100
AcDbDictionary
0
DICTIONARY
5
1A
330
C
100
AcDbDictionary
0
DICTIONARY
5
17
100
AcDbDictionary
0
ENDSEC
0
EOF
