ISO-10303-21;
HEADER;
/* Generated by software containing ST-Developer
 * from STEP Tools, Inc. (www.steptools.com) 
 */

FILE_DESCRIPTION(
/* description */ (''),
/* implementation_level */ '2;1');

FILE_NAME(
/* name */ 
'//192.168.217.6/sascha/aktuell/Projekte/a_Voron2/stl_mod/spider_din_m
ount@github v1.step',
/* time_stamp */ '2021-05-21T10:23:27+02:00',
/* author */ (''),
/* organization */ (''),
/* preprocessor_version */ 'ST-DEVELOPER v18.1',
/* originating_system */ 'Autodesk Translation Framework v10.6.0.1341',

/* authorisation */ '');

FILE_SCHEMA (('AUTOMOTIVE_DESIGN { 1 0 10303 214 3 1 1 }'));
ENDSEC;

DATA;
#10=MECHANICAL_DESIGN_GEOMETRIC_PRESENTATION_REPRESENTATION('',(#13),#225);
#11=SHAPE_REPRESENTATION_RELATIONSHIP('SRR','None',#232,#12);
#12=ADVANCED_BREP_SHAPE_REPRESENTATION('',(#14),#224);
#13=STYLED_ITEM('',(#241),#14);
#14=MANIFOLD_SOLID_BREP('spider_spacer_x4',#121);
#15=CYLINDRICAL_SURFACE('',#140,3.5);
#16=CYLINDRICAL_SURFACE('',#144,1.6);
#17=FACE_BOUND('',#31,.T.);
#18=FACE_BOUND('',#37,.T.);
#19=PLANE('',#138);
#20=PLANE('',#148);
#21=FACE_OUTER_BOUND('',#29,.T.);
#22=FACE_OUTER_BOUND('',#30,.T.);
#23=FACE_OUTER_BOUND('',#32,.T.);
#24=FACE_OUTER_BOUND('',#33,.T.);
#25=FACE_OUTER_BOUND('',#34,.T.);
#26=FACE_OUTER_BOUND('',#35,.T.);
#27=FACE_OUTER_BOUND('',#36,.T.);
#28=FACE_OUTER_BOUND('',#38,.T.);
#29=EDGE_LOOP('',(#81,#82,#83,#84));
#30=EDGE_LOOP('',(#85));
#31=EDGE_LOOP('',(#86));
#32=EDGE_LOOP('',(#87,#88,#89,#90));
#33=EDGE_LOOP('',(#91,#92,#93,#94));
#34=EDGE_LOOP('',(#95,#96,#97,#98));
#35=EDGE_LOOP('',(#99,#100,#101,#102));
#36=EDGE_LOOP('',(#103));
#37=EDGE_LOOP('',(#104));
#38=EDGE_LOOP('',(#105,#106,#107,#108));
#39=LINE('',#196,#45);
#40=LINE('',#204,#46);
#41=LINE('',#207,#47);
#42=LINE('',#212,#48);
#43=LINE('',#216,#49);
#44=LINE('',#221,#50);
#45=VECTOR('',#157,3.4);
#46=VECTOR('',#168,3.5);
#47=VECTOR('',#171,1.7);
#48=VECTOR('',#178,1.6);
#49=VECTOR('',#183,3.4);
#50=VECTOR('',#190,1.7);
#51=CIRCLE('',#136,3.3);
#52=CIRCLE('',#137,3.5);
#53=CIRCLE('',#139,1.8);
#54=CIRCLE('',#141,3.5);
#55=CIRCLE('',#143,1.6);
#56=CIRCLE('',#145,1.6);
#57=CIRCLE('',#147,3.3);
#58=CIRCLE('',#149,1.8);
#59=VERTEX_POINT('',#193);
#60=VERTEX_POINT('',#195);
#61=VERTEX_POINT('',#199);
#62=VERTEX_POINT('',#202);
#63=VERTEX_POINT('',#206);
#64=VERTEX_POINT('',#210);
#65=VERTEX_POINT('',#214);
#66=VERTEX_POINT('',#218);
#67=EDGE_CURVE('',#59,#59,#51,.T.);
#68=EDGE_CURVE('',#59,#60,#39,.T.);
#69=EDGE_CURVE('',#60,#60,#52,.T.);
#70=EDGE_CURVE('',#61,#61,#53,.T.);
#71=EDGE_CURVE('',#62,#62,#54,.T.);
#72=EDGE_CURVE('',#62,#60,#40,.T.);
#73=EDGE_CURVE('',#61,#63,#41,.T.);
#74=EDGE_CURVE('',#63,#63,#55,.T.);
#75=EDGE_CURVE('',#64,#64,#56,.T.);
#76=EDGE_CURVE('',#64,#63,#42,.T.);
#77=EDGE_CURVE('',#65,#65,#57,.T.);
#78=EDGE_CURVE('',#65,#62,#43,.T.);
#79=EDGE_CURVE('',#66,#66,#58,.T.);
#80=EDGE_CURVE('',#66,#64,#44,.T.);
#81=ORIENTED_EDGE('',*,*,#67,.T.);
#82=ORIENTED_EDGE('',*,*,#68,.T.);
#83=ORIENTED_EDGE('',*,*,#69,.T.);
#84=ORIENTED_EDGE('',*,*,#68,.F.);
#85=ORIENTED_EDGE('',*,*,#67,.F.);
#86=ORIENTED_EDGE('',*,*,#70,.F.);
#87=ORIENTED_EDGE('',*,*,#71,.F.);
#88=ORIENTED_EDGE('',*,*,#72,.T.);
#89=ORIENTED_EDGE('',*,*,#69,.F.);
#90=ORIENTED_EDGE('',*,*,#72,.F.);
#91=ORIENTED_EDGE('',*,*,#70,.T.);
#92=ORIENTED_EDGE('',*,*,#73,.T.);
#93=ORIENTED_EDGE('',*,*,#74,.T.);
#94=ORIENTED_EDGE('',*,*,#73,.F.);
#95=ORIENTED_EDGE('',*,*,#75,.F.);
#96=ORIENTED_EDGE('',*,*,#76,.T.);
#97=ORIENTED_EDGE('',*,*,#74,.F.);
#98=ORIENTED_EDGE('',*,*,#76,.F.);
#99=ORIENTED_EDGE('',*,*,#77,.T.);
#100=ORIENTED_EDGE('',*,*,#78,.T.);
#101=ORIENTED_EDGE('',*,*,#71,.T.);
#102=ORIENTED_EDGE('',*,*,#78,.F.);
#103=ORIENTED_EDGE('',*,*,#77,.F.);
#104=ORIENTED_EDGE('',*,*,#79,.F.);
#105=ORIENTED_EDGE('',*,*,#79,.T.);
#106=ORIENTED_EDGE('',*,*,#80,.T.);
#107=ORIENTED_EDGE('',*,*,#75,.T.);
#108=ORIENTED_EDGE('',*,*,#80,.F.);
#109=CONICAL_SURFACE('',#135,3.4,0.78539816339746);
#110=CONICAL_SURFACE('',#142,1.7,0.78539816339746);
#111=CONICAL_SURFACE('',#146,3.4,0.785398163397458);
#112=CONICAL_SURFACE('',#150,1.7,0.785398163397459);
#113=ADVANCED_FACE('',(#21),#109,.T.);
#114=ADVANCED_FACE('',(#22,#17),#19,.F.);
#115=ADVANCED_FACE('',(#23),#15,.T.);
#116=ADVANCED_FACE('',(#24),#110,.F.);
#117=ADVANCED_FACE('',(#25),#16,.F.);
#118=ADVANCED_FACE('',(#26),#111,.T.);
#119=ADVANCED_FACE('',(#27,#18),#20,.T.);
#120=ADVANCED_FACE('',(#28),#112,.F.);
#121=CLOSED_SHELL('',(#113,#114,#115,#116,#117,#118,#119,#120));
#122=DERIVED_UNIT_ELEMENT(#124,1.);
#123=DERIVED_UNIT_ELEMENT(#227,-3.);
#124=(
MASS_UNIT()
NAMED_UNIT(*)
SI_UNIT(.KILO.,.GRAM.)
);
#125=DERIVED_UNIT((#122,#123));
#126=MEASURE_REPRESENTATION_ITEM('density measure',
POSITIVE_RATIO_MEASURE(1100.),#125);
#127=PROPERTY_DEFINITION_REPRESENTATION(#132,#129);
#128=PROPERTY_DEFINITION_REPRESENTATION(#133,#130);
#129=REPRESENTATION('material name',(#131),#224);
#130=REPRESENTATION('density',(#126),#224);
#131=DESCRIPTIVE_REPRESENTATION_ITEM('PC/ABS Plastic','PC/ABS Plastic');
#132=PROPERTY_DEFINITION('material property','material name',#234);
#133=PROPERTY_DEFINITION('material property','density of part',#234);
#134=AXIS2_PLACEMENT_3D('placement',#191,#151,#152);
#135=AXIS2_PLACEMENT_3D('',#192,#153,#154);
#136=AXIS2_PLACEMENT_3D('',#194,#155,#156);
#137=AXIS2_PLACEMENT_3D('',#197,#158,#159);
#138=AXIS2_PLACEMENT_3D('',#198,#160,#161);
#139=AXIS2_PLACEMENT_3D('',#200,#162,#163);
#140=AXIS2_PLACEMENT_3D('',#201,#164,#165);
#141=AXIS2_PLACEMENT_3D('',#203,#166,#167);
#142=AXIS2_PLACEMENT_3D('',#205,#169,#170);
#143=AXIS2_PLACEMENT_3D('',#208,#172,#173);
#144=AXIS2_PLACEMENT_3D('',#209,#174,#175);
#145=AXIS2_PLACEMENT_3D('',#211,#176,#177);
#146=AXIS2_PLACEMENT_3D('',#213,#179,#180);
#147=AXIS2_PLACEMENT_3D('',#215,#181,#182);
#148=AXIS2_PLACEMENT_3D('',#217,#184,#185);
#149=AXIS2_PLACEMENT_3D('',#219,#186,#187);
#150=AXIS2_PLACEMENT_3D('',#220,#188,#189);
#151=DIRECTION('axis',(0.,0.,1.));
#152=DIRECTION('refdir',(1.,0.,0.));
#153=DIRECTION('center_axis',(0.,0.,-1.));
#154=DIRECTION('ref_axis',(1.,6.12347280081969E-32,6.85297726803047E-17));
#155=DIRECTION('center_axis',(1.41212864916992E-16,-8.93549264986773E-16,
-1.));
#156=DIRECTION('ref_axis',(1.,1.26180651653254E-31,1.41212864916992E-16));
#157=DIRECTION('',(-0.707106781186555,-8.65956056235503E-17,-0.70710678118654));
#158=DIRECTION('center_axis',(-1.41212864916992E-16,8.93549264986773E-16,
1.));
#159=DIRECTION('ref_axis',(1.,0.,0.));
#160=DIRECTION('center_axis',(1.41212864916992E-16,-8.93549264986773E-16,
-1.));
#161=DIRECTION('ref_axis',(-1.,0.,-1.41212864916992E-16));
#162=DIRECTION('center_axis',(-1.41212864916992E-16,8.93549264986773E-16,
1.));
#163=DIRECTION('ref_axis',(1.,1.26180651653254E-31,1.41212864916992E-16));
#164=DIRECTION('center_axis',(0.,0.,-1.));
#165=DIRECTION('ref_axis',(1.,0.,0.));
#166=DIRECTION('center_axis',(1.41212864916992E-16,-8.93549264986773E-16,
-1.));
#167=DIRECTION('ref_axis',(1.,0.,0.));
#168=DIRECTION('',(0.,0.,1.));
#169=DIRECTION('center_axis',(0.,0.,1.));
#170=DIRECTION('ref_axis',(1.,6.68015214634875E-32,7.47597520148779E-17));
#171=DIRECTION('',(0.707106781186556,8.65956056235504E-17,-0.70710678118654));
#172=DIRECTION('center_axis',(1.41212864916992E-16,-8.93549264986773E-16,
-1.));
#173=DIRECTION('ref_axis',(1.,0.,0.));
#174=DIRECTION('center_axis',(0.,0.,-1.));
#175=DIRECTION('ref_axis',(1.,0.,0.));
#176=DIRECTION('center_axis',(-1.41212864916992E-16,8.93549264986773E-16,
1.));
#177=DIRECTION('ref_axis',(1.,0.,0.));
#178=DIRECTION('',(0.,0.,1.));
#179=DIRECTION('center_axis',(0.,0.,1.));
#180=DIRECTION('ref_axis',(1.,6.12347280081969E-32,6.85297726803047E-17));
#181=DIRECTION('center_axis',(-1.41212864916992E-16,8.93549264986773E-16,
1.));
#182=DIRECTION('ref_axis',(1.,1.26180651653254E-31,1.41212864916992E-16));
#183=DIRECTION('',(-0.707106781186555,8.65956056235503E-17,0.70710678118654));
#184=DIRECTION('center_axis',(1.41212864916992E-16,-8.93549264986773E-16,
-1.));
#185=DIRECTION('ref_axis',(-1.,0.,-1.41212864916992E-16));
#186=DIRECTION('center_axis',(1.41212864916992E-16,-8.93549264986773E-16,
-1.));
#187=DIRECTION('ref_axis',(1.,1.26180651653254E-31,1.41212864916992E-16));
#188=DIRECTION('center_axis',(0.,0.,-1.));
#189=DIRECTION('ref_axis',(1.,6.68015214634875E-32,7.47597520148779E-17));
#190=DIRECTION('',(0.707106781186555,-8.65956056235502E-17,0.70710678118654));
#191=CARTESIAN_POINT('',(0.,0.,0.));
#192=CARTESIAN_POINT('Origin',(-31.2303022871967,263.035818938198,-54.2960000000935));
#193=CARTESIAN_POINT('',(-34.5303022871967,263.035818938198,-54.1960000000935));
#194=CARTESIAN_POINT('Origin',(-31.2303022871967,263.035818938198,-54.1960000000935));
#195=CARTESIAN_POINT('',(-34.7303022871967,263.035818938198,-54.3960000000935));
#196=CARTESIAN_POINT('',(-34.6303022871967,263.035818938198,-54.2960000000935));
#197=CARTESIAN_POINT('Origin',(-31.2303022871967,263.035818938198,-54.3960000000935));
#198=CARTESIAN_POINT('Origin',(-31.2303022871967,263.035818938198,-54.1960000000935));
#199=CARTESIAN_POINT('',(-33.0303022871967,263.035818938198,-54.1960000000935));
#200=CARTESIAN_POINT('Origin',(-31.2303022871967,263.035818938198,-54.1960000000935));
#201=CARTESIAN_POINT('Origin',(-31.2303022871967,263.035818938198,-54.1960000000935));
#202=CARTESIAN_POINT('',(-34.7303022871967,263.035818938198,-58.4960000000935));
#203=CARTESIAN_POINT('Origin',(-31.2303022871967,263.035818938198,-58.4960000000935));
#204=CARTESIAN_POINT('',(-34.7303022871967,263.035818938198,-54.1960000000935));
#205=CARTESIAN_POINT('Origin',(-31.2303022871967,263.035818938198,-54.2960000000935));
#206=CARTESIAN_POINT('',(-32.8303022871967,263.035818938198,-54.3960000000935));
#207=CARTESIAN_POINT('',(-32.9303022871967,263.035818938198,-54.2960000000935));
#208=CARTESIAN_POINT('Origin',(-31.2303022871967,263.035818938198,-54.3960000000935));
#209=CARTESIAN_POINT('Origin',(-31.2303022871967,263.035818938198,-54.1960000000935));
#210=CARTESIAN_POINT('',(-32.8303022871967,263.035818938198,-58.4960000000935));
#211=CARTESIAN_POINT('Origin',(-31.2303022871967,263.035818938198,-58.4960000000935));
#212=CARTESIAN_POINT('',(-32.8303022871967,263.035818938198,-54.1960000000935));
#213=CARTESIAN_POINT('Origin',(-31.2303022871967,263.035818938198,-58.5960000000935));
#214=CARTESIAN_POINT('',(-34.5303022871967,263.035818938198,-58.6960000000935));
#215=CARTESIAN_POINT('Origin',(-31.2303022871967,263.035818938198,-58.6960000000935));
#216=CARTESIAN_POINT('',(-34.6303022871967,263.035818938198,-58.5960000000935));
#217=CARTESIAN_POINT('Origin',(-31.2303022871967,263.035818938198,-58.6960000000935));
#218=CARTESIAN_POINT('',(-33.0303022871967,263.035818938198,-58.6960000000935));
#219=CARTESIAN_POINT('Origin',(-31.2303022871967,263.035818938198,-58.6960000000935));
#220=CARTESIAN_POINT('Origin',(-31.2303022871967,263.035818938198,-58.5960000000935));
#221=CARTESIAN_POINT('',(-32.9303022871967,263.035818938198,-58.5960000000935));
#222=UNCERTAINTY_MEASURE_WITH_UNIT(LENGTH_MEASURE(0.01),#226,
'DISTANCE_ACCURACY_VALUE',
'Maximum model space distance between geometric entities at asserted c
onnectivities');
#223=UNCERTAINTY_MEASURE_WITH_UNIT(LENGTH_MEASURE(0.01),#226,
'DISTANCE_ACCURACY_VALUE',
'Maximum model space distance between geometric entities at asserted c
onnectivities');
#224=(
GEOMETRIC_REPRESENTATION_CONTEXT(3)
GLOBAL_UNCERTAINTY_ASSIGNED_CONTEXT((#222))
GLOBAL_UNIT_ASSIGNED_CONTEXT((#226,#228,#229))
REPRESENTATION_CONTEXT('','3D')
);
#225=(
GEOMETRIC_REPRESENTATION_CONTEXT(3)
GLOBAL_UNCERTAINTY_ASSIGNED_CONTEXT((#223))
GLOBAL_UNIT_ASSIGNED_CONTEXT((#226,#228,#229))
REPRESENTATION_CONTEXT('','3D')
);
#226=(
LENGTH_UNIT()
NAMED_UNIT(*)
SI_UNIT(.MILLI.,.METRE.)
);
#227=(
LENGTH_UNIT()
NAMED_UNIT(*)
SI_UNIT($,.METRE.)
);
#228=(
NAMED_UNIT(*)
PLANE_ANGLE_UNIT()
SI_UNIT($,.RADIAN.)
);
#229=(
NAMED_UNIT(*)
SI_UNIT($,.STERADIAN.)
SOLID_ANGLE_UNIT()
);
#230=SHAPE_DEFINITION_REPRESENTATION(#231,#232);
#231=PRODUCT_DEFINITION_SHAPE('',$,#234);
#232=SHAPE_REPRESENTATION('',(#134),#224);
#233=PRODUCT_DEFINITION_CONTEXT('part definition',#238,'design');
#234=PRODUCT_DEFINITION('spider_din_mount@github',
'spider_din_mount@github v1',#235,#233);
#235=PRODUCT_DEFINITION_FORMATION('',$,#240);
#236=PRODUCT_RELATED_PRODUCT_CATEGORY('spider_din_mount@github v1',
'spider_din_mount@github v1',(#240));
#237=APPLICATION_PROTOCOL_DEFINITION('international standard',
'automotive_design',2009,#238);
#238=APPLICATION_CONTEXT(
'Core Data for Automotive Mechanical Design Process');
#239=PRODUCT_CONTEXT('part definition',#238,'mechanical');
#240=PRODUCT('spider_din_mount@github','spider_din_mount@github v1',$,(#239));
#241=PRESENTATION_STYLE_ASSIGNMENT((#248));
#242=PRESENTATION_STYLE_ASSIGNMENT((#249));
#243=PRESENTATION_STYLE_ASSIGNMENT((#250));
#244=PRESENTATION_STYLE_ASSIGNMENT((#251));
#245=PRESENTATION_STYLE_ASSIGNMENT((#252));
#246=PRESENTATION_STYLE_ASSIGNMENT((#253));
#247=PRESENTATION_STYLE_ASSIGNMENT((#254));
#248=SURFACE_STYLE_USAGE(.BOTH.,#255);
#249=SURFACE_STYLE_USAGE(.BOTH.,#256);
#250=SURFACE_STYLE_USAGE(.BOTH.,#257);
#251=SURFACE_STYLE_USAGE(.BOTH.,#258);
#252=SURFACE_STYLE_USAGE(.BOTH.,#259);
#253=SURFACE_STYLE_USAGE(.BOTH.,#260);
#254=SURFACE_STYLE_USAGE(.BOTH.,#261);
#255=SURFACE_SIDE_STYLE('',(#262));
#256=SURFACE_SIDE_STYLE('',(#263));
#257=SURFACE_SIDE_STYLE('',(#264));
#258=SURFACE_SIDE_STYLE('',(#265));
#259=SURFACE_SIDE_STYLE('',(#266));
#260=SURFACE_SIDE_STYLE('',(#267));
#261=SURFACE_SIDE_STYLE('',(#268));
#262=SURFACE_STYLE_FILL_AREA(#269);
#263=SURFACE_STYLE_FILL_AREA(#270);
#264=SURFACE_STYLE_FILL_AREA(#271);
#265=SURFACE_STYLE_FILL_AREA(#272);
#266=SURFACE_STYLE_FILL_AREA(#273);
#267=SURFACE_STYLE_FILL_AREA(#274);
#268=SURFACE_STYLE_FILL_AREA(#275);
#269=FILL_AREA_STYLE('Plastic - Matte (Gray)',(#276));
#270=FILL_AREA_STYLE('Steel - Satin',(#277));
#271=FILL_AREA_STYLE('Plastic - Matte (Black)',(#278));
#272=FILL_AREA_STYLE('Opaque(0,75,134)',(#279));
#273=FILL_AREA_STYLE('Opaque(240,0,240)',(#280));
#274=FILL_AREA_STYLE('Opaque(153,153,153)',(#281));
#275=FILL_AREA_STYLE('Opaque(255,0,0)',(#282));
#276=FILL_AREA_STYLE_COLOUR('Plastic - Matte (Gray)',#283);
#277=FILL_AREA_STYLE_COLOUR('Steel - Satin',#284);
#278=FILL_AREA_STYLE_COLOUR('Plastic - Matte (Black)',#285);
#279=FILL_AREA_STYLE_COLOUR('Opaque(0,75,134)',#286);
#280=FILL_AREA_STYLE_COLOUR('Opaque(240,0,240)',#287);
#281=FILL_AREA_STYLE_COLOUR('Opaque(153,153,153)',#288);
#282=FILL_AREA_STYLE_COLOUR('Opaque(255,0,0)',#289);
#283=COLOUR_RGB('Plastic - Matte (Gray)',0.701960784313725,0.701960784313725,
0.701960784313725);
#284=COLOUR_RGB('Steel - Satin',0.627450980392157,0.627450980392157,0.627450980392157);
#285=COLOUR_RGB('Plastic - Matte (Black)',0.192156862745098,0.192156862745098,
0.192156862745098);
#286=COLOUR_RGB('Opaque(0,75,134)',0.,0.294117647058824,0.525490196078431);
#287=COLOUR_RGB('Opaque(240,0,240)',0.941176470588235,0.,0.941176470588235);
#288=COLOUR_RGB('Opaque(153,153,153)',0.6,0.6,0.6);
#289=COLOUR_RGB('Opaque(255,0,0)',1.,0.,0.);
ENDSEC;
END-ISO-10303-21;
