ISO-10303-21;
HEADER;
/* Generated by software containing ST-Developer
 * from STEP Tools, Inc. (www.steptools.com) 
 */

FILE_DESCRIPTION(
/* description */ (''),
/* implementation_level */ '2;1');

FILE_NAME(
/* name */ 
'D:/CloudDrives/Lars/OneDrive/Voron/LaKoBlue/VoronUsers/printer_mods/B
lueBear/Wago_221_mount/1515_SnapIn_Makerbeam.step',
/* time_stamp */ '2020-12-16T11:46:17+01:00',
/* author */ (''),
/* organization */ (''),
/* preprocessor_version */ 'ST-DEVELOPER v18.1',
/* originating_system */ 'Autodesk Translation Framework v9.7.1.1290',
/* authorisation */ '');

FILE_SCHEMA (('AUTOMOTIVE_DESIGN { 1 0 10303 214 3 1 1 }'));
ENDSEC;

DATA;
#10=MECHANICAL_DESIGN_GEOMETRIC_PRESENTATION_REPRESENTATION('',(#13),#684);
#11=SHAPE_REPRESENTATION_RELATIONSHIP('SRR','None',#691,#12);
#12=ADVANCED_BREP_SHAPE_REPRESENTATION('',(#14),#683);
#13=STYLED_ITEM('',(#700),#14);
#14=MANIFOLD_SOLID_BREP('Body1',#424);
#15=FACE_BOUND('',#60,.T.);
#16=FACE_BOUND('',#70,.T.);
#17=PLANE('',#441);
#18=PLANE('',#442);
#19=PLANE('',#443);
#20=PLANE('',#444);
#21=PLANE('',#445);
#22=PLANE('',#446);
#23=PLANE('',#447);
#24=PLANE('',#448);
#25=PLANE('',#449);
#26=PLANE('',#450);
#27=PLANE('',#451);
#28=PLANE('',#452);
#29=PLANE('',#453);
#30=PLANE('',#454);
#31=PLANE('',#455);
#32=PLANE('',#456);
#33=PLANE('',#457);
#34=PLANE('',#458);
#35=PLANE('',#459);
#36=PLANE('',#460);
#37=FACE_OUTER_BOUND('',#58,.T.);
#38=FACE_OUTER_BOUND('',#59,.T.);
#39=FACE_OUTER_BOUND('',#61,.T.);
#40=FACE_OUTER_BOUND('',#62,.T.);
#41=FACE_OUTER_BOUND('',#63,.T.);
#42=FACE_OUTER_BOUND('',#64,.T.);
#43=FACE_OUTER_BOUND('',#65,.T.);
#44=FACE_OUTER_BOUND('',#66,.T.);
#45=FACE_OUTER_BOUND('',#67,.T.);
#46=FACE_OUTER_BOUND('',#68,.T.);
#47=FACE_OUTER_BOUND('',#69,.T.);
#48=FACE_OUTER_BOUND('',#71,.T.);
#49=FACE_OUTER_BOUND('',#72,.T.);
#50=FACE_OUTER_BOUND('',#73,.T.);
#51=FACE_OUTER_BOUND('',#74,.T.);
#52=FACE_OUTER_BOUND('',#75,.T.);
#53=FACE_OUTER_BOUND('',#76,.T.);
#54=FACE_OUTER_BOUND('',#77,.T.);
#55=FACE_OUTER_BOUND('',#78,.T.);
#56=FACE_OUTER_BOUND('',#79,.T.);
#57=FACE_OUTER_BOUND('',#80,.T.);
#58=EDGE_LOOP('',(#288,#289,#290,#291));
#59=EDGE_LOOP('',(#292,#293,#294,#295));
#60=EDGE_LOOP('',(#296));
#61=EDGE_LOOP('',(#297,#298,#299,#300));
#62=EDGE_LOOP('',(#301,#302,#303,#304));
#63=EDGE_LOOP('',(#305,#306,#307,#308));
#64=EDGE_LOOP('',(#309,#310,#311,#312));
#65=EDGE_LOOP('',(#313,#314,#315,#316));
#66=EDGE_LOOP('',(#317,#318,#319,#320));
#67=EDGE_LOOP('',(#321,#322,#323,#324));
#68=EDGE_LOOP('',(#325,#326,#327,#328));
#69=EDGE_LOOP('',(#329,#330,#331,#332));
#70=EDGE_LOOP('',(#333));
#71=EDGE_LOOP('',(#334,#335,#336,#337));
#72=EDGE_LOOP('',(#338,#339,#340,#341));
#73=EDGE_LOOP('',(#342,#343,#344,#345));
#74=EDGE_LOOP('',(#346,#347,#348,#349));
#75=EDGE_LOOP('',(#350,#351,#352,#353));
#76=EDGE_LOOP('',(#354,#355,#356,#357));
#77=EDGE_LOOP('',(#358,#359,#360,#361));
#78=EDGE_LOOP('',(#362,#363,#364,#365));
#79=EDGE_LOOP('',(#366,#367,#368,#369,#370,#371,#372,#373,#374,#375,#376,
#377,#378,#379,#380,#381,#382,#383));
#80=EDGE_LOOP('',(#384,#385,#386,#387,#388,#389,#390,#391,#392,#393,#394,
#395,#396,#397,#398,#399,#400,#401));
#81=LINE('',#569,#136);
#82=LINE('',#574,#137);
#83=LINE('',#576,#138);
#84=LINE('',#578,#139);
#85=LINE('',#579,#140);
#86=LINE('',#582,#141);
#87=LINE('',#584,#142);
#88=LINE('',#585,#143);
#89=LINE('',#588,#144);
#90=LINE('',#590,#145);
#91=LINE('',#591,#146);
#92=LINE('',#594,#147);
#93=LINE('',#596,#148);
#94=LINE('',#597,#149);
#95=LINE('',#600,#150);
#96=LINE('',#602,#151);
#97=LINE('',#603,#152);
#98=LINE('',#606,#153);
#99=LINE('',#608,#154);
#100=LINE('',#609,#155);
#101=LINE('',#612,#156);
#102=LINE('',#614,#157);
#103=LINE('',#615,#158);
#104=LINE('',#618,#159);
#105=LINE('',#620,#160);
#106=LINE('',#621,#161);
#107=LINE('',#624,#162);
#108=LINE('',#626,#163);
#109=LINE('',#627,#164);
#110=LINE('',#630,#165);
#111=LINE('',#632,#166);
#112=LINE('',#633,#167);
#113=LINE('',#636,#168);
#114=LINE('',#638,#169);
#115=LINE('',#639,#170);
#116=LINE('',#642,#171);
#117=LINE('',#644,#172);
#118=LINE('',#645,#173);
#119=LINE('',#648,#174);
#120=LINE('',#650,#175);
#121=LINE('',#651,#176);
#122=LINE('',#654,#177);
#123=LINE('',#656,#178);
#124=LINE('',#657,#179);
#125=LINE('',#660,#180);
#126=LINE('',#662,#181);
#127=LINE('',#663,#182);
#128=LINE('',#666,#183);
#129=LINE('',#668,#184);
#130=LINE('',#669,#185);
#131=LINE('',#672,#186);
#132=LINE('',#674,#187);
#133=LINE('',#675,#188);
#134=LINE('',#677,#189);
#135=LINE('',#678,#190);
#136=VECTOR('',#467,0.6105);
#137=VECTOR('',#472,10.);
#138=VECTOR('',#473,10.);
#139=VECTOR('',#474,10.);
#140=VECTOR('',#475,10.);
#141=VECTOR('',#478,10.);
#142=VECTOR('',#479,10.);
#143=VECTOR('',#480,10.);
#144=VECTOR('',#483,10.);
#145=VECTOR('',#484,10.);
#146=VECTOR('',#485,10.);
#147=VECTOR('',#488,10.);
#148=VECTOR('',#489,10.);
#149=VECTOR('',#490,10.);
#150=VECTOR('',#493,10.);
#151=VECTOR('',#494,10.);
#152=VECTOR('',#495,10.);
#153=VECTOR('',#498,10.);
#154=VECTOR('',#499,10.);
#155=VECTOR('',#500,10.);
#156=VECTOR('',#503,10.);
#157=VECTOR('',#504,10.);
#158=VECTOR('',#505,10.);
#159=VECTOR('',#508,10.);
#160=VECTOR('',#509,10.);
#161=VECTOR('',#510,10.);
#162=VECTOR('',#513,10.);
#163=VECTOR('',#514,10.);
#164=VECTOR('',#515,10.);
#165=VECTOR('',#518,10.);
#166=VECTOR('',#519,10.);
#167=VECTOR('',#520,10.);
#168=VECTOR('',#523,10.);
#169=VECTOR('',#524,10.);
#170=VECTOR('',#525,10.);
#171=VECTOR('',#528,10.);
#172=VECTOR('',#529,10.);
#173=VECTOR('',#530,10.);
#174=VECTOR('',#533,10.);
#175=VECTOR('',#534,10.);
#176=VECTOR('',#535,10.);
#177=VECTOR('',#538,10.);
#178=VECTOR('',#539,10.);
#179=VECTOR('',#540,10.);
#180=VECTOR('',#543,10.);
#181=VECTOR('',#544,10.);
#182=VECTOR('',#545,10.);
#183=VECTOR('',#548,10.);
#184=VECTOR('',#549,10.);
#185=VECTOR('',#550,10.);
#186=VECTOR('',#553,10.);
#187=VECTOR('',#554,10.);
#188=VECTOR('',#555,10.);
#189=VECTOR('',#558,10.);
#190=VECTOR('',#559,10.);
#191=CIRCLE('',#439,0.6105);
#192=CIRCLE('',#440,0.6105);
#193=VERTEX_POINT('',#566);
#194=VERTEX_POINT('',#568);
#195=VERTEX_POINT('',#572);
#196=VERTEX_POINT('',#573);
#197=VERTEX_POINT('',#575);
#198=VERTEX_POINT('',#577);
#199=VERTEX_POINT('',#581);
#200=VERTEX_POINT('',#583);
#201=VERTEX_POINT('',#587);
#202=VERTEX_POINT('',#589);
#203=VERTEX_POINT('',#593);
#204=VERTEX_POINT('',#595);
#205=VERTEX_POINT('',#599);
#206=VERTEX_POINT('',#601);
#207=VERTEX_POINT('',#605);
#208=VERTEX_POINT('',#607);
#209=VERTEX_POINT('',#611);
#210=VERTEX_POINT('',#613);
#211=VERTEX_POINT('',#617);
#212=VERTEX_POINT('',#619);
#213=VERTEX_POINT('',#623);
#214=VERTEX_POINT('',#625);
#215=VERTEX_POINT('',#629);
#216=VERTEX_POINT('',#631);
#217=VERTEX_POINT('',#635);
#218=VERTEX_POINT('',#637);
#219=VERTEX_POINT('',#641);
#220=VERTEX_POINT('',#643);
#221=VERTEX_POINT('',#647);
#222=VERTEX_POINT('',#649);
#223=VERTEX_POINT('',#653);
#224=VERTEX_POINT('',#655);
#225=VERTEX_POINT('',#659);
#226=VERTEX_POINT('',#661);
#227=VERTEX_POINT('',#665);
#228=VERTEX_POINT('',#667);
#229=VERTEX_POINT('',#671);
#230=VERTEX_POINT('',#673);
#231=EDGE_CURVE('',#193,#193,#191,.T.);
#232=EDGE_CURVE('',#193,#194,#81,.T.);
#233=EDGE_CURVE('',#194,#194,#192,.T.);
#234=EDGE_CURVE('',#195,#196,#82,.T.);
#235=EDGE_CURVE('',#196,#197,#83,.T.);
#236=EDGE_CURVE('',#198,#197,#84,.T.);
#237=EDGE_CURVE('',#195,#198,#85,.T.);
#238=EDGE_CURVE('',#195,#199,#86,.T.);
#239=EDGE_CURVE('',#200,#198,#87,.T.);
#240=EDGE_CURVE('',#199,#200,#88,.T.);
#241=EDGE_CURVE('',#201,#199,#89,.T.);
#242=EDGE_CURVE('',#202,#200,#90,.T.);
#243=EDGE_CURVE('',#201,#202,#91,.T.);
#244=EDGE_CURVE('',#201,#203,#92,.T.);
#245=EDGE_CURVE('',#204,#202,#93,.T.);
#246=EDGE_CURVE('',#203,#204,#94,.T.);
#247=EDGE_CURVE('',#205,#203,#95,.T.);
#248=EDGE_CURVE('',#206,#204,#96,.T.);
#249=EDGE_CURVE('',#205,#206,#97,.T.);
#250=EDGE_CURVE('',#207,#205,#98,.T.);
#251=EDGE_CURVE('',#208,#206,#99,.T.);
#252=EDGE_CURVE('',#207,#208,#100,.T.);
#253=EDGE_CURVE('',#209,#207,#101,.T.);
#254=EDGE_CURVE('',#210,#208,#102,.T.);
#255=EDGE_CURVE('',#209,#210,#103,.T.);
#256=EDGE_CURVE('',#211,#209,#104,.T.);
#257=EDGE_CURVE('',#212,#210,#105,.T.);
#258=EDGE_CURVE('',#211,#212,#106,.T.);
#259=EDGE_CURVE('',#213,#211,#107,.T.);
#260=EDGE_CURVE('',#214,#212,#108,.T.);
#261=EDGE_CURVE('',#213,#214,#109,.T.);
#262=EDGE_CURVE('',#213,#215,#110,.T.);
#263=EDGE_CURVE('',#216,#214,#111,.T.);
#264=EDGE_CURVE('',#215,#216,#112,.T.);
#265=EDGE_CURVE('',#215,#217,#113,.T.);
#266=EDGE_CURVE('',#218,#216,#114,.T.);
#267=EDGE_CURVE('',#217,#218,#115,.T.);
#268=EDGE_CURVE('',#217,#219,#116,.T.);
#269=EDGE_CURVE('',#220,#218,#117,.T.);
#270=EDGE_CURVE('',#219,#220,#118,.T.);
#271=EDGE_CURVE('',#219,#221,#119,.T.);
#272=EDGE_CURVE('',#222,#220,#120,.T.);
#273=EDGE_CURVE('',#221,#222,#121,.T.);
#274=EDGE_CURVE('',#221,#223,#122,.T.);
#275=EDGE_CURVE('',#224,#222,#123,.T.);
#276=EDGE_CURVE('',#223,#224,#124,.T.);
#277=EDGE_CURVE('',#223,#225,#125,.T.);
#278=EDGE_CURVE('',#226,#224,#126,.T.);
#279=EDGE_CURVE('',#225,#226,#127,.T.);
#280=EDGE_CURVE('',#227,#225,#128,.T.);
#281=EDGE_CURVE('',#228,#226,#129,.T.);
#282=EDGE_CURVE('',#227,#228,#130,.T.);
#283=EDGE_CURVE('',#227,#229,#131,.T.);
#284=EDGE_CURVE('',#230,#228,#132,.T.);
#285=EDGE_CURVE('',#229,#230,#133,.T.);
#286=EDGE_CURVE('',#196,#229,#134,.T.);
#287=EDGE_CURVE('',#197,#230,#135,.T.);
#288=ORIENTED_EDGE('',*,*,#231,.F.);
#289=ORIENTED_EDGE('',*,*,#232,.T.);
#290=ORIENTED_EDGE('',*,*,#233,.F.);
#291=ORIENTED_EDGE('',*,*,#232,.F.);
#292=ORIENTED_EDGE('',*,*,#234,.T.);
#293=ORIENTED_EDGE('',*,*,#235,.T.);
#294=ORIENTED_EDGE('',*,*,#236,.F.);
#295=ORIENTED_EDGE('',*,*,#237,.F.);
#296=ORIENTED_EDGE('',*,*,#233,.T.);
#297=ORIENTED_EDGE('',*,*,#238,.F.);
#298=ORIENTED_EDGE('',*,*,#237,.T.);
#299=ORIENTED_EDGE('',*,*,#239,.F.);
#300=ORIENTED_EDGE('',*,*,#240,.F.);
#301=ORIENTED_EDGE('',*,*,#241,.T.);
#302=ORIENTED_EDGE('',*,*,#240,.T.);
#303=ORIENTED_EDGE('',*,*,#242,.F.);
#304=ORIENTED_EDGE('',*,*,#243,.F.);
#305=ORIENTED_EDGE('',*,*,#244,.F.);
#306=ORIENTED_EDGE('',*,*,#243,.T.);
#307=ORIENTED_EDGE('',*,*,#245,.F.);
#308=ORIENTED_EDGE('',*,*,#246,.F.);
#309=ORIENTED_EDGE('',*,*,#247,.T.);
#310=ORIENTED_EDGE('',*,*,#246,.T.);
#311=ORIENTED_EDGE('',*,*,#248,.F.);
#312=ORIENTED_EDGE('',*,*,#249,.F.);
#313=ORIENTED_EDGE('',*,*,#250,.T.);
#314=ORIENTED_EDGE('',*,*,#249,.T.);
#315=ORIENTED_EDGE('',*,*,#251,.F.);
#316=ORIENTED_EDGE('',*,*,#252,.F.);
#317=ORIENTED_EDGE('',*,*,#253,.T.);
#318=ORIENTED_EDGE('',*,*,#252,.T.);
#319=ORIENTED_EDGE('',*,*,#254,.F.);
#320=ORIENTED_EDGE('',*,*,#255,.F.);
#321=ORIENTED_EDGE('',*,*,#256,.T.);
#322=ORIENTED_EDGE('',*,*,#255,.T.);
#323=ORIENTED_EDGE('',*,*,#257,.F.);
#324=ORIENTED_EDGE('',*,*,#258,.F.);
#325=ORIENTED_EDGE('',*,*,#259,.T.);
#326=ORIENTED_EDGE('',*,*,#258,.T.);
#327=ORIENTED_EDGE('',*,*,#260,.F.);
#328=ORIENTED_EDGE('',*,*,#261,.F.);
#329=ORIENTED_EDGE('',*,*,#262,.F.);
#330=ORIENTED_EDGE('',*,*,#261,.T.);
#331=ORIENTED_EDGE('',*,*,#263,.F.);
#332=ORIENTED_EDGE('',*,*,#264,.F.);
#333=ORIENTED_EDGE('',*,*,#231,.T.);
#334=ORIENTED_EDGE('',*,*,#265,.F.);
#335=ORIENTED_EDGE('',*,*,#264,.T.);
#336=ORIENTED_EDGE('',*,*,#266,.F.);
#337=ORIENTED_EDGE('',*,*,#267,.F.);
#338=ORIENTED_EDGE('',*,*,#268,.F.);
#339=ORIENTED_EDGE('',*,*,#267,.T.);
#340=ORIENTED_EDGE('',*,*,#269,.F.);
#341=ORIENTED_EDGE('',*,*,#270,.F.);
#342=ORIENTED_EDGE('',*,*,#271,.F.);
#343=ORIENTED_EDGE('',*,*,#270,.T.);
#344=ORIENTED_EDGE('',*,*,#272,.F.);
#345=ORIENTED_EDGE('',*,*,#273,.F.);
#346=ORIENTED_EDGE('',*,*,#274,.F.);
#347=ORIENTED_EDGE('',*,*,#273,.T.);
#348=ORIENTED_EDGE('',*,*,#275,.F.);
#349=ORIENTED_EDGE('',*,*,#276,.F.);
#350=ORIENTED_EDGE('',*,*,#277,.F.);
#351=ORIENTED_EDGE('',*,*,#276,.T.);
#352=ORIENTED_EDGE('',*,*,#278,.F.);
#353=ORIENTED_EDGE('',*,*,#279,.F.);
#354=ORIENTED_EDGE('',*,*,#280,.T.);
#355=ORIENTED_EDGE('',*,*,#279,.T.);
#356=ORIENTED_EDGE('',*,*,#281,.F.);
#357=ORIENTED_EDGE('',*,*,#282,.F.);
#358=ORIENTED_EDGE('',*,*,#283,.F.);
#359=ORIENTED_EDGE('',*,*,#282,.T.);
#360=ORIENTED_EDGE('',*,*,#284,.F.);
#361=ORIENTED_EDGE('',*,*,#285,.F.);
#362=ORIENTED_EDGE('',*,*,#286,.T.);
#363=ORIENTED_EDGE('',*,*,#285,.T.);
#364=ORIENTED_EDGE('',*,*,#287,.F.);
#365=ORIENTED_EDGE('',*,*,#235,.F.);
#366=ORIENTED_EDGE('',*,*,#287,.T.);
#367=ORIENTED_EDGE('',*,*,#284,.T.);
#368=ORIENTED_EDGE('',*,*,#281,.T.);
#369=ORIENTED_EDGE('',*,*,#278,.T.);
#370=ORIENTED_EDGE('',*,*,#275,.T.);
#371=ORIENTED_EDGE('',*,*,#272,.T.);
#372=ORIENTED_EDGE('',*,*,#269,.T.);
#373=ORIENTED_EDGE('',*,*,#266,.T.);
#374=ORIENTED_EDGE('',*,*,#263,.T.);
#375=ORIENTED_EDGE('',*,*,#260,.T.);
#376=ORIENTED_EDGE('',*,*,#257,.T.);
#377=ORIENTED_EDGE('',*,*,#254,.T.);
#378=ORIENTED_EDGE('',*,*,#251,.T.);
#379=ORIENTED_EDGE('',*,*,#248,.T.);
#380=ORIENTED_EDGE('',*,*,#245,.T.);
#381=ORIENTED_EDGE('',*,*,#242,.T.);
#382=ORIENTED_EDGE('',*,*,#239,.T.);
#383=ORIENTED_EDGE('',*,*,#236,.T.);
#384=ORIENTED_EDGE('',*,*,#286,.F.);
#385=ORIENTED_EDGE('',*,*,#234,.F.);
#386=ORIENTED_EDGE('',*,*,#238,.T.);
#387=ORIENTED_EDGE('',*,*,#241,.F.);
#388=ORIENTED_EDGE('',*,*,#244,.T.);
#389=ORIENTED_EDGE('',*,*,#247,.F.);
#390=ORIENTED_EDGE('',*,*,#250,.F.);
#391=ORIENTED_EDGE('',*,*,#253,.F.);
#392=ORIENTED_EDGE('',*,*,#256,.F.);
#393=ORIENTED_EDGE('',*,*,#259,.F.);
#394=ORIENTED_EDGE('',*,*,#262,.T.);
#395=ORIENTED_EDGE('',*,*,#265,.T.);
#396=ORIENTED_EDGE('',*,*,#268,.T.);
#397=ORIENTED_EDGE('',*,*,#271,.T.);
#398=ORIENTED_EDGE('',*,*,#274,.T.);
#399=ORIENTED_EDGE('',*,*,#277,.T.);
#400=ORIENTED_EDGE('',*,*,#280,.F.);
#401=ORIENTED_EDGE('',*,*,#283,.T.);
#402=CYLINDRICAL_SURFACE('',#438,0.6105);
#403=ADVANCED_FACE('',(#37),#402,.F.);
#404=ADVANCED_FACE('',(#38,#15),#17,.T.);
#405=ADVANCED_FACE('',(#39),#18,.T.);
#406=ADVANCED_FACE('',(#40),#19,.T.);
#407=ADVANCED_FACE('',(#41),#20,.T.);
#408=ADVANCED_FACE('',(#42),#21,.T.);
#409=ADVANCED_FACE('',(#43),#22,.T.);
#410=ADVANCED_FACE('',(#44),#23,.T.);
#411=ADVANCED_FACE('',(#45),#24,.T.);
#412=ADVANCED_FACE('',(#46),#25,.T.);
#413=ADVANCED_FACE('',(#47,#16),#26,.T.);
#414=ADVANCED_FACE('',(#48),#27,.T.);
#415=ADVANCED_FACE('',(#49),#28,.T.);
#416=ADVANCED_FACE('',(#50),#29,.T.);
#417=ADVANCED_FACE('',(#51),#30,.T.);
#418=ADVANCED_FACE('',(#52),#31,.T.);
#419=ADVANCED_FACE('',(#53),#32,.T.);
#420=ADVANCED_FACE('',(#54),#33,.T.);
#421=ADVANCED_FACE('',(#55),#34,.T.);
#422=ADVANCED_FACE('',(#56),#35,.T.);
#423=ADVANCED_FACE('',(#57),#36,.F.);
#424=CLOSED_SHELL('',(#403,#404,#405,#406,#407,#408,#409,#410,#411,#412,
#413,#414,#415,#416,#417,#418,#419,#420,#421,#422,#423));
#425=DERIVED_UNIT_ELEMENT(#427,1.);
#426=DERIVED_UNIT_ELEMENT(#686,-3.);
#427=(
MASS_UNIT()
NAMED_UNIT(*)
SI_UNIT(.KILO.,.GRAM.)
);
#428=DERIVED_UNIT((#425,#426));
#429=MEASURE_REPRESENTATION_ITEM('density measure',
POSITIVE_RATIO_MEASURE(7850.),#428);
#430=PROPERTY_DEFINITION_REPRESENTATION(#435,#432);
#431=PROPERTY_DEFINITION_REPRESENTATION(#436,#433);
#432=REPRESENTATION('material name',(#434),#683);
#433=REPRESENTATION('density',(#429),#683);
#434=DESCRIPTIVE_REPRESENTATION_ITEM('Steel','Steel');
#435=PROPERTY_DEFINITION('material property','material name',#693);
#436=PROPERTY_DEFINITION('material property','density of part',#693);
#437=AXIS2_PLACEMENT_3D('placement',#564,#461,#462);
#438=AXIS2_PLACEMENT_3D('',#565,#463,#464);
#439=AXIS2_PLACEMENT_3D('',#567,#465,#466);
#440=AXIS2_PLACEMENT_3D('',#570,#468,#469);
#441=AXIS2_PLACEMENT_3D('',#571,#470,#471);
#442=AXIS2_PLACEMENT_3D('',#580,#476,#477);
#443=AXIS2_PLACEMENT_3D('',#586,#481,#482);
#444=AXIS2_PLACEMENT_3D('',#592,#486,#487);
#445=AXIS2_PLACEMENT_3D('',#598,#491,#492);
#446=AXIS2_PLACEMENT_3D('',#604,#496,#497);
#447=AXIS2_PLACEMENT_3D('',#610,#501,#502);
#448=AXIS2_PLACEMENT_3D('',#616,#506,#507);
#449=AXIS2_PLACEMENT_3D('',#622,#511,#512);
#450=AXIS2_PLACEMENT_3D('',#628,#516,#517);
#451=AXIS2_PLACEMENT_3D('',#634,#521,#522);
#452=AXIS2_PLACEMENT_3D('',#640,#526,#527);
#453=AXIS2_PLACEMENT_3D('',#646,#531,#532);
#454=AXIS2_PLACEMENT_3D('',#652,#536,#537);
#455=AXIS2_PLACEMENT_3D('',#658,#541,#542);
#456=AXIS2_PLACEMENT_3D('',#664,#546,#547);
#457=AXIS2_PLACEMENT_3D('',#670,#551,#552);
#458=AXIS2_PLACEMENT_3D('',#676,#556,#557);
#459=AXIS2_PLACEMENT_3D('',#679,#560,#561);
#460=AXIS2_PLACEMENT_3D('',#680,#562,#563);
#461=DIRECTION('axis',(0.,0.,1.));
#462=DIRECTION('refdir',(1.,0.,0.));
#463=DIRECTION('center_axis',(0.,1.,-2.22044604925031E-16));
#464=DIRECTION('ref_axis',(0.,-2.22044604925031E-16,-1.));
#465=DIRECTION('center_axis',(0.,1.,-2.22044604925031E-16));
#466=DIRECTION('ref_axis',(0.,-2.22044604925031E-16,-1.));
#467=DIRECTION('',(0.,1.,-2.22044604925031E-16));
#468=DIRECTION('center_axis',(-1.25724271927578E-16,-1.,2.22044604925031E-16));
#469=DIRECTION('ref_axis',(0.,-2.22044604925031E-16,-1.));
#470=DIRECTION('center_axis',(1.25724271927578E-16,1.,-2.22044604925031E-16));
#471=DIRECTION('ref_axis',(-1.,1.25724271927578E-16,-2.79163962896463E-32));
#472=DIRECTION('',(-1.,1.25724271927578E-16,-2.79163962896463E-32));
#473=DIRECTION('',(0.,2.22044604925031E-16,1.));
#474=DIRECTION('',(-1.,1.25724271927578E-16,-2.79163962896463E-32));
#475=DIRECTION('',(0.,2.22044604925031E-16,1.));
#476=DIRECTION('center_axis',(-1.,0.,0.));
#477=DIRECTION('ref_axis',(0.,-1.,2.22044604925031E-16));
#478=DIRECTION('',(0.,1.,-2.22044604925031E-16));
#479=DIRECTION('',(0.,-1.,2.22044604925031E-16));
#480=DIRECTION('',(0.,2.22044604925031E-16,1.));
#481=DIRECTION('center_axis',(-0.999168053100577,0.0407823695143093,-9.05550512671145E-18));
#482=DIRECTION('ref_axis',(-0.0407823695143093,-0.999168053100578,2.2185987560443E-16));
#483=DIRECTION('',(-0.0407823695143093,-0.999168053100578,2.2185987560443E-16));
#484=DIRECTION('',(-0.0407823695143093,-0.999168053100578,2.2185987560443E-16));
#485=DIRECTION('',(0.,2.22044604925031E-16,1.));
#486=DIRECTION('center_axis',(0.605083267533558,0.796162194123103,-1.7678351985031E-16));
#487=DIRECTION('ref_axis',(-0.796162194123103,0.605083267533558,-1.34355475086236E-16));
#488=DIRECTION('',(0.796162194123103,-0.605083267533558,1.34355475086236E-16));
#489=DIRECTION('',(-0.796162194123103,0.605083267533558,-1.34355475086236E-16));
#490=DIRECTION('',(0.,2.22044604925031E-16,1.));
#491=DIRECTION('center_axis',(1.,0.,0.));
#492=DIRECTION('ref_axis',(0.,1.,-2.22044604925031E-16));
#493=DIRECTION('',(0.,1.,-2.22044604925031E-16));
#494=DIRECTION('',(0.,1.,-2.22044604925031E-16));
#495=DIRECTION('',(0.,2.22044604925031E-16,1.));
#496=DIRECTION('center_axis',(0.609710760849693,-0.7926239891046,1.75997880514833E-16));
#497=DIRECTION('ref_axis',(0.7926239891046,0.609710760849693,-1.3538298501141E-16));
#498=DIRECTION('',(0.7926239891046,0.609710760849693,-1.3538298501141E-16));
#499=DIRECTION('',(0.7926239891046,0.609710760849693,-1.3538298501141E-16));
#500=DIRECTION('',(0.,2.22044604925031E-16,1.));
#501=DIRECTION('center_axis',(1.,0.,0.));
#502=DIRECTION('ref_axis',(0.,1.,-2.22044604925031E-16));
#503=DIRECTION('',(0.,1.,-2.22044604925031E-16));
#504=DIRECTION('',(0.,1.,-2.22044604925031E-16));
#505=DIRECTION('',(0.,2.22044604925031E-16,1.));
#506=DIRECTION('center_axis',(0.,1.,-2.22044604925031E-16));
#507=DIRECTION('ref_axis',(-1.,0.,0.));
#508=DIRECTION('',(-1.,0.,0.));
#509=DIRECTION('',(-1.,0.,0.));
#510=DIRECTION('',(0.,2.22044604925031E-16,1.));
#511=DIRECTION('center_axis',(1.,7.40148683083438E-16,-1.64346021921044E-31));
#512=DIRECTION('ref_axis',(-7.40148683083438E-16,1.,-2.22044604925031E-16));
#513=DIRECTION('',(-7.40148683083438E-16,1.,-2.22044604925031E-16));
#514=DIRECTION('',(-7.40148683083438E-16,1.,-2.22044604925031E-16));
#515=DIRECTION('',(0.,2.22044604925031E-16,1.));
#516=DIRECTION('center_axis',(0.,-1.,2.22044604925031E-16));
#517=DIRECTION('ref_axis',(1.,0.,0.));
#518=DIRECTION('',(-1.,0.,0.));
#519=DIRECTION('',(1.,0.,0.));
#520=DIRECTION('',(0.,2.22044604925031E-16,1.));
#521=DIRECTION('center_axis',(-1.,-4.31306681499086E-16,9.5769321694991E-32));
#522=DIRECTION('ref_axis',(4.31306681499087E-16,-1.,2.22044604925031E-16));
#523=DIRECTION('',(-4.31306681499087E-16,1.,-2.22044604925031E-16));
#524=DIRECTION('',(4.31306681499087E-16,-1.,2.22044604925031E-16));
#525=DIRECTION('',(0.,2.22044604925031E-16,1.));
#526=DIRECTION('center_axis',(7.59977283071058E-17,1.,-2.22044604925031E-16));
#527=DIRECTION('ref_axis',(-1.,7.59977283071058E-17,-1.68748855571512E-32));
#528=DIRECTION('',(1.,-7.59977283071058E-17,1.68748855571512E-32));
#529=DIRECTION('',(-1.,7.59977283071058E-17,-1.68748855571512E-32));
#530=DIRECTION('',(0.,2.22044604925031E-16,1.));
#531=DIRECTION('center_axis',(-1.,0.,0.));
#532=DIRECTION('ref_axis',(0.,-1.,2.22044604925031E-16));
#533=DIRECTION('',(0.,1.,-2.22044604925031E-16));
#534=DIRECTION('',(0.,-1.,2.22044604925031E-16));
#535=DIRECTION('',(0.,2.22044604925031E-16,1.));
#536=DIRECTION('center_axis',(-0.609710760849693,-0.7926239891046,1.75997880514833E-16));
#537=DIRECTION('ref_axis',(0.7926239891046,-0.609710760849693,1.3538298501141E-16));
#538=DIRECTION('',(-0.7926239891046,0.609710760849693,-1.3538298501141E-16));
#539=DIRECTION('',(0.7926239891046,-0.609710760849693,1.3538298501141E-16));
#540=DIRECTION('',(0.,2.22044604925031E-16,1.));
#541=DIRECTION('center_axis',(-1.,0.,0.));
#542=DIRECTION('ref_axis',(0.,-1.,2.22044604925031E-16));
#543=DIRECTION('',(0.,1.,-2.22044604925031E-16));
#544=DIRECTION('',(0.,-1.,2.22044604925031E-16));
#545=DIRECTION('',(0.,2.22044604925031E-16,1.));
#546=DIRECTION('center_axis',(-0.605083267533558,0.796162194123103,-1.7678351985031E-16));
#547=DIRECTION('ref_axis',(-0.796162194123103,-0.605083267533558,1.34355475086236E-16));
#548=DIRECTION('',(-0.796162194123103,-0.605083267533558,1.34355475086236E-16));
#549=DIRECTION('',(-0.796162194123103,-0.605083267533558,1.34355475086236E-16));
#550=DIRECTION('',(0.,2.22044604925031E-16,1.));
#551=DIRECTION('center_axis',(0.999168053100577,0.0407823695143093,-9.05550512671145E-18));
#552=DIRECTION('ref_axis',(-0.0407823695143093,0.999168053100578,-2.2185987560443E-16));
#553=DIRECTION('',(0.0407823695143093,-0.999168053100578,2.2185987560443E-16));
#554=DIRECTION('',(-0.0407823695143093,0.999168053100578,-2.2185987560443E-16));
#555=DIRECTION('',(0.,2.22044604925031E-16,1.));
#556=DIRECTION('center_axis',(1.,0.,0.));
#557=DIRECTION('ref_axis',(0.,1.,-2.22044604925031E-16));
#558=DIRECTION('',(0.,1.,-2.22044604925031E-16));
#559=DIRECTION('',(0.,1.,-2.22044604925031E-16));
#560=DIRECTION('center_axis',(0.,2.22044604925031E-16,1.));
#561=DIRECTION('ref_axis',(0.,-1.,2.22044604925031E-16));
#562=DIRECTION('center_axis',(0.,2.22044604925031E-16,1.));
#563=DIRECTION('ref_axis',(1.,0.,0.));
#564=CARTESIAN_POINT('',(0.,0.,0.));
#565=CARTESIAN_POINT('Origin',(3.5,8.25,-3.5));
#566=CARTESIAN_POINT('',(3.5,5.5,-2.8895));
#567=CARTESIAN_POINT('Origin',(3.5,5.5,-3.5));
#568=CARTESIAN_POINT('',(3.5,7.,-2.8895));
#569=CARTESIAN_POINT('',(3.5,8.25,-2.8895));
#570=CARTESIAN_POINT('Origin',(3.5,7.,-3.5));
#571=CARTESIAN_POINT('Origin',(4.3,7.,-7.));
#572=CARTESIAN_POINT('',(4.3,7.,-7.));
#573=CARTESIAN_POINT('',(2.7,7.,-7.));
#574=CARTESIAN_POINT('',(4.3,7.,-7.));
#575=CARTESIAN_POINT('',(2.7,7.,0.));
#576=CARTESIAN_POINT('',(2.7,7.,-7.));
#577=CARTESIAN_POINT('',(4.3,7.,0.));
#578=CARTESIAN_POINT('',(4.3,7.,0.));
#579=CARTESIAN_POINT('',(4.3,7.,-7.));
#580=CARTESIAN_POINT('Origin',(4.3,8.05,-7.));
#581=CARTESIAN_POINT('',(4.3,8.05,-7.));
#582=CARTESIAN_POINT('',(4.3,7.,-7.));
#583=CARTESIAN_POINT('',(4.3,8.05,0.));
#584=CARTESIAN_POINT('',(4.3,7.,0.));
#585=CARTESIAN_POINT('',(4.3,8.05,-7.));
#586=CARTESIAN_POINT('Origin',(4.4,10.5,-7.));
#587=CARTESIAN_POINT('',(4.4,10.5,-7.));
#588=CARTESIAN_POINT('',(4.4,10.5,-7.));
#589=CARTESIAN_POINT('',(4.4,10.5,-1.11022302462516E-15));
#590=CARTESIAN_POINT('',(4.4,10.5,-1.11022302462516E-15));
#591=CARTESIAN_POINT('',(4.4,10.5,-7.));
#592=CARTESIAN_POINT('Origin',(5.65,9.55,-7.));
#593=CARTESIAN_POINT('',(5.65,9.55,-7.));
#594=CARTESIAN_POINT('',(4.4,10.5,-7.));
#595=CARTESIAN_POINT('',(5.65,9.55,-1.11022302462516E-15));
#596=CARTESIAN_POINT('',(4.4,10.5,-1.11022302462516E-15));
#597=CARTESIAN_POINT('',(5.65,9.55,-7.));
#598=CARTESIAN_POINT('Origin',(5.65,8.55,-7.));
#599=CARTESIAN_POINT('',(5.65,8.55,-7.));
#600=CARTESIAN_POINT('',(5.65,8.55,-7.));
#601=CARTESIAN_POINT('',(5.65,8.55,0.));
#602=CARTESIAN_POINT('',(5.65,8.55,0.));
#603=CARTESIAN_POINT('',(5.65,8.55,-7.));
#604=CARTESIAN_POINT('Origin',(5.,8.05,-7.));
#605=CARTESIAN_POINT('',(5.,8.05,-7.));
#606=CARTESIAN_POINT('',(5.,8.05,-7.));
#607=CARTESIAN_POINT('',(5.,8.05,0.));
#608=CARTESIAN_POINT('',(5.,8.05,0.));
#609=CARTESIAN_POINT('',(5.,8.05,-7.));
#610=CARTESIAN_POINT('Origin',(5.,7.,-7.));
#611=CARTESIAN_POINT('',(5.,7.,-7.));
#612=CARTESIAN_POINT('',(5.,7.,-7.));
#613=CARTESIAN_POINT('',(5.,7.,0.));
#614=CARTESIAN_POINT('',(5.,7.,0.));
#615=CARTESIAN_POINT('',(5.,7.,-7.));
#616=CARTESIAN_POINT('Origin',(7.,7.,-7.));
#617=CARTESIAN_POINT('',(7.,7.,-7.));
#618=CARTESIAN_POINT('',(7.,7.,-7.));
#619=CARTESIAN_POINT('',(7.,7.,0.));
#620=CARTESIAN_POINT('',(7.,7.,0.));
#621=CARTESIAN_POINT('',(7.,7.,-7.));
#622=CARTESIAN_POINT('Origin',(7.,5.5,-7.));
#623=CARTESIAN_POINT('',(7.,5.5,-7.));
#624=CARTESIAN_POINT('',(7.,5.5,-7.));
#625=CARTESIAN_POINT('',(7.,5.5,0.));
#626=CARTESIAN_POINT('',(7.,5.5,0.));
#627=CARTESIAN_POINT('',(7.,5.5,-7.));
#628=CARTESIAN_POINT('Origin',(5.55111512312578E-16,5.5,-7.));
#629=CARTESIAN_POINT('',(6.4696002224863E-16,5.5,-7.));
#630=CARTESIAN_POINT('',(3.5,5.5,-7.));
#631=CARTESIAN_POINT('',(5.55111512312578E-16,5.5,0.));
#632=CARTESIAN_POINT('',(3.5,5.5,0.));
#633=CARTESIAN_POINT('',(6.4696002224863E-16,5.5,-7.));
#634=CARTESIAN_POINT('Origin',(0.,7.,-7.));
#635=CARTESIAN_POINT('',(0.,7.,-7.));
#636=CARTESIAN_POINT('',(6.4696002224863E-16,5.5,-7.));
#637=CARTESIAN_POINT('',(0.,7.,0.));
#638=CARTESIAN_POINT('',(6.4696002224863E-16,5.5,0.));
#639=CARTESIAN_POINT('',(0.,7.,-7.));
#640=CARTESIAN_POINT('Origin',(2.,7.,-7.));
#641=CARTESIAN_POINT('',(2.,7.,-7.));
#642=CARTESIAN_POINT('',(0.,7.,-7.));
#643=CARTESIAN_POINT('',(2.,7.,0.));
#644=CARTESIAN_POINT('',(0.,7.,0.));
#645=CARTESIAN_POINT('',(2.,7.,-7.));
#646=CARTESIAN_POINT('Origin',(2.,8.05,-7.));
#647=CARTESIAN_POINT('',(2.,8.05,-7.));
#648=CARTESIAN_POINT('',(2.,7.,-7.));
#649=CARTESIAN_POINT('',(2.,8.05,0.));
#650=CARTESIAN_POINT('',(2.,7.,0.));
#651=CARTESIAN_POINT('',(2.,8.05,-7.));
#652=CARTESIAN_POINT('Origin',(1.35,8.55,-7.));
#653=CARTESIAN_POINT('',(1.35,8.55,-7.));
#654=CARTESIAN_POINT('',(2.,8.05,-7.));
#655=CARTESIAN_POINT('',(1.35,8.55,0.));
#656=CARTESIAN_POINT('',(2.,8.05,0.));
#657=CARTESIAN_POINT('',(1.35,8.55,-7.));
#658=CARTESIAN_POINT('Origin',(1.35,9.55,-7.));
#659=CARTESIAN_POINT('',(1.35,9.55,-7.));
#660=CARTESIAN_POINT('',(1.35,8.55,-7.));
#661=CARTESIAN_POINT('',(1.35,9.55,-1.11022302462516E-15));
#662=CARTESIAN_POINT('',(1.35,8.55,0.));
#663=CARTESIAN_POINT('',(1.35,9.55,-7.));
#664=CARTESIAN_POINT('Origin',(2.6,10.5,-7.));
#665=CARTESIAN_POINT('',(2.6,10.5,-7.));
#666=CARTESIAN_POINT('',(2.6,10.5,-7.));
#667=CARTESIAN_POINT('',(2.6,10.5,-1.11022302462516E-15));
#668=CARTESIAN_POINT('',(2.6,10.5,-1.11022302462516E-15));
#669=CARTESIAN_POINT('',(2.6,10.5,-7.));
#670=CARTESIAN_POINT('Origin',(2.7,8.05,-7.));
#671=CARTESIAN_POINT('',(2.7,8.05,-7.));
#672=CARTESIAN_POINT('',(2.6,10.5,-7.));
#673=CARTESIAN_POINT('',(2.7,8.05,0.));
#674=CARTESIAN_POINT('',(2.6,10.5,-1.11022302462516E-15));
#675=CARTESIAN_POINT('',(2.7,8.05,-7.));
#676=CARTESIAN_POINT('Origin',(2.7,7.,-7.));
#677=CARTESIAN_POINT('',(2.7,7.,-7.));
#678=CARTESIAN_POINT('',(2.7,7.,0.));
#679=CARTESIAN_POINT('Origin',(3.5,8.,0.));
#680=CARTESIAN_POINT('Origin',(3.5,8.,-7.));
#681=UNCERTAINTY_MEASURE_WITH_UNIT(LENGTH_MEASURE(0.01),#685,
'DISTANCE_ACCURACY_VALUE',
'Maximum model space distance between geometric entities at asserted c
onnectivities');
#682=UNCERTAINTY_MEASURE_WITH_UNIT(LENGTH_MEASURE(0.01),#685,
'DISTANCE_ACCURACY_VALUE',
'Maximum model space distance between geometric entities at asserted c
onnectivities');
#683=(
GEOMETRIC_REPRESENTATION_CONTEXT(3)
GLOBAL_UNCERTAINTY_ASSIGNED_CONTEXT((#681))
GLOBAL_UNIT_ASSIGNED_CONTEXT((#685,#687,#688))
REPRESENTATION_CONTEXT('','3D')
);
#684=(
GEOMETRIC_REPRESENTATION_CONTEXT(3)
GLOBAL_UNCERTAINTY_ASSIGNED_CONTEXT((#682))
GLOBAL_UNIT_ASSIGNED_CONTEXT((#685,#687,#688))
REPRESENTATION_CONTEXT('','3D')
);
#685=(
LENGTH_UNIT()
NAMED_UNIT(*)
SI_UNIT(.MILLI.,.METRE.)
);
#686=(
LENGTH_UNIT()
NAMED_UNIT(*)
SI_UNIT($,.METRE.)
);
#687=(
NAMED_UNIT(*)
PLANE_ANGLE_UNIT()
SI_UNIT($,.RADIAN.)
);
#688=(
NAMED_UNIT(*)
SI_UNIT($,.STERADIAN.)
SOLID_ANGLE_UNIT()
);
#689=SHAPE_DEFINITION_REPRESENTATION(#690,#691);
#690=PRODUCT_DEFINITION_SHAPE('',$,#693);
#691=SHAPE_REPRESENTATION('',(#437),#683);
#692=PRODUCT_DEFINITION_CONTEXT('part definition',#697,'design');
#693=PRODUCT_DEFINITION('1515_SnapIn_Makerbeam',
'1515_SnapIn_Makerbeam v11',#694,#692);
#694=PRODUCT_DEFINITION_FORMATION('',$,#699);
#695=PRODUCT_RELATED_PRODUCT_CATEGORY('1515_SnapIn_Makerbeam v11',
'1515_SnapIn_Makerbeam v11',(#699));
#696=APPLICATION_PROTOCOL_DEFINITION('international standard',
'automotive_design',2009,#697);
#697=APPLICATION_CONTEXT(
'Core Data for Automotive Mechanical Design Process');
#698=PRODUCT_CONTEXT('part definition',#697,'mechanical');
#699=PRODUCT('1515_SnapIn_Makerbeam','1515_SnapIn_Makerbeam v11',$,(#698));
#700=PRESENTATION_STYLE_ASSIGNMENT((#701));
#701=SURFACE_STYLE_USAGE(.BOTH.,#702);
#702=SURFACE_SIDE_STYLE('',(#703));
#703=SURFACE_STYLE_FILL_AREA(#704);
#704=FILL_AREA_STYLE('Steel - Satin',(#705));
#705=FILL_AREA_STYLE_COLOUR('Steel - Satin',#706);
#706=COLOUR_RGB('Steel - Satin',0.627450980392157,0.627450980392157,0.627450980392157);
ENDSEC;
END-ISO-10303-21;
