0
SECTION
2
HEADER
9
$INSUNITS
70
4
9
$ACADVER
1
AC1014
9
$HANDSEED
5
FFFF
0
ENDSEC
0
SECTION
2
TABLES
0
TABLE
2
VPORT
5
8
100
AcDbSymbolTable
0
ENDTAB
0
TABLE
2
LTYPE
5
5
100
AcDbSymbolTable
0
LTYPE
5
14
100
AcDbSymbolTableRecord
100
AcDbLinetypeTableRecord
2
BYBLOCK
70
0
0
LTYPE
5
15
100
AcDbSymbolTableRecord
100
AcDbLinetypeTableRecord
2
BYLAYER
70
0
0
ENDTAB
0
TABLE
2
LAYER
5
2
100
AcDbSymbolTable
70
2
0
LAYER
5
50
100
AcDbSymbolTableRecord
100
AcDbLayerTableRecord
2
0
70
0
6
CONTINUOUS
0
ENDTAB
0
TABLE
2
STYLE
5
3
100
AcDbSymbolTable
70
1
0
STYLE
5
11
100
AcDbSymbolTableRecord
100
AcDbTextStyleTableRecord
2
STANDARD
70
0
0
ENDTAB
0
TABLE
2
VIEW
5
6
100
AcDbSymbolTable
70
0
0
ENDTAB
0
TABLE
2
UCS
5
7
100
AcDbSymbolTable
70
0
0
ENDTAB
0
TABLE
2
APPID
5
9
100
AcDbSymbolTable
70
2
0
APPID
5
12
100
AcDbSymbolTableRecord
100
AcDbRegAppTableRecord
2
ACAD
70
0
0
ENDTAB
0
TABLE
2
DIMSTYLE
5
A
100
AcDbSymbolTable
70
1
0
ENDTAB
0
TABLE
2
BLOCK_RECORD
5
1
100
AcDbSymbolTable
70
1
0
BLOCK_RECORD
5
1F
100
AcDbSymbolTableRecord
100
AcDbBlockTableRecord
2
*MODEL_SPACE
0
BLOCK_RECORD
5
1B
100
AcDbSymbolTableRecord
100
AcDbBlockTableRecord
2
*PAPER_SPACE
0
ENDTAB
0
ENDSEC
0
SECTION
2
BLOCKS
0
BLOCK
5
20
100
AcDbEntity
100
AcDbBlockBegin
2
*MODEL_SPACE
0
ENDBLK
5
21
100
AcDbEntity
100
AcDbBlockEnd
0
BLOCK
5
1C
100
AcDbEntity
100
AcDbBlockBegin
2
*PAPER_SPACE
0
ENDBLK
5
1D
100
AcDbEntity
100
AcDbBlockEnd
0
ENDSEC
0
SECTION
2
ENTITIES
0
LWPOLYLINE
5
100
100
AcDbEntity
8
0
100
AcDbPolyline
90
24
70
1
43
0.0
10
-186.9999618530272
20
399.99999999999721
10
-189.9999618530272
20
399.99999999999721
10
-189.9999618530272
20
270.00000047682755
10
-186.9999618530272
20
270.00000047682749
10
-186.9999618530272
20
250.00000047682749
10
-189.9999618530272
20
250.00000047682749
10
-189.9999618530272
20
119.99999999999893
10
-186.9999618530272
20
119.99999999999895
10
-186.9999618530272
20
99.999999999998849
10
-189.9999618530272
20
99.999999999998849
10
-189.9999618530272
20
51.000001430501555
42
0.41421356237309243
10
-187.9999618530272
20
49.000001430501577
10
3.000040302325111
20
49.00000143050066
42
0.41421356237309481
10
5.0000403023251119
20
51.00000143050066
10
5.0000403023251234
20
107.99999999999898
42
-0.41421356237309481
10
7.0000403023251154
20
109.99999999999898
10
78.000000000000327
20
109.99999999999898
42
0.41421356237309892
10
80.000000000000313
20
111.99999999999896
10
80.000000000000341
20
488.00000047682551
42
0.41421356237307549
10
78.000000000000327
20
490.00000047682545
10
-187.99996185302717
20
490.00000047682545
42
0.41421356237310542
10
-189.99996185302712
20
488.00000047682545
10
-189.9999618530272
20
419.99999999999721
10
-186.9999618530272
20
419.99999999999721
0
CIRCLE
5
101
100
AcDbEntity
8
0
100
AcDbCircle
10
-9.9999618530303405
20
109.99999999999895
30
0
40
2.7000000000000055
210
0
220
-0
230
1
0
CIRCLE
5
102
100
AcDbEntity
8
0
100
AcDbCircle
10
-9.9999618530258854
20
260.00000047682749
30
0
40
2.7000000000000002
210
0
220
-0
230
1
0
CIRCLE
5
103
100
AcDbEntity
8
0
100
AcDbCircle
10
-9.9999618530214303
20
409.99999999999721
30
0
40
2.6999999999999802
210
0
220
-0
230
1
0
CIRCLE
5
104
100
AcDbEntity
8
0
100
AcDbCircle
10
-133.99996185302129
20
409.9999999999975
30
0
40
2.6999999999999931
210
2.0543252740123743e-32
220
2.2094854936754845e-48
230
1
0
CIRCLE
5
105
100
AcDbEntity
8
0
100
AcDbCircle
10
-133.99996185302126
20
285.99999999999756
30
0
40
2.6999999999999931
210
2.0543252740123743e-32
220
2.2094854936754845e-48
230
1
0
CIRCLE
5
106
100
AcDbEntity
8
0
100
AcDbCircle
10
-9.9999618530214214
20
285.99999999999761
30
0
40
2.6999999999999975
210
2.0543252740124443e-32
220
2.2094854936755598e-48
230
1
0
LINE
5
107
100
AcDbEntity
8
0
100
AcDbLine
10
-121.99996185302129
20
291.99999999999756
30
0
11
-21.999961853021421
21
291.99999999999756
31
2.465190328821197e-31
0
ARC
5
108
100
AcDbEntity
8
0
100
AcDbCircle
10
-121.99996185302129
20
297.99999999999756
30
2.0526832973508063e-47
40
5.9999999999999964
210
2.054325274012406e-32
220
-4.588533199741723e-48
230
1
100
AcDbArc
50
180
51
270
0
LINE
5
109
100
AcDbEntity
8
0
100
AcDbLine
10
-127.99996185302129
20
397.9999999999975
30
0
11
-127.99996185302128
21
297.99999999999756
31
0
0
ARC
5
110
100
AcDbEntity
8
0
100
AcDbCircle
10
-121.99996185302133
20
397.99999999999756
30
7.9698850158473971e-44
40
5.9999999999999432
210
1.0271626370078475e-31
220
7.8886090522102582e-31
230
1
100
AcDbArc
50
90
51
180
0
LINE
5
111
100
AcDbEntity
8
0
100
AcDbLine
10
-21.999961853021421
20
403.9999999999975
30
0
11
-121.99996185302129
21
403.9999999999975
31
1.1586394545437836e-29
0
ARC
5
112
100
AcDbEntity
8
0
100
AcDbCircle
10
-21.999961853021436
20
397.99999999999756
30
1.1221335358851074e-45
40
6.0000000000000009
210
1.0271626370066743e-31
220
1.8354132798967113e-47
230
1
100
AcDbArc
50
0
51
89.999999999999858
0
LINE
5
113
100
AcDbEntity
8
0
100
AcDbLine
10
-15.999961853021421
20
297.99999999999761
30
0
11
-15.999961853021428
21
397.9999999999975
31
0
0
ARC
5
114
100
AcDbEntity
8
0
100
AcDbCircle
10
-21.999961853021389
20
297.99999999999761
30
4.1053665947016125e-46
40
5.9999999999999787
210
-2.0543252740136625e-32
220
6.0820245847652873e-48
230
1
100
AcDbArc
50
269.99999999999983
51
360
0
CIRCLE
5
115
100
AcDbEntity
8
0
100
AcDbCircle
10
-133.99996185302129
20
409.9999999999975
30
0
40
6.5000000000000036
210
0
220
0
230
1
0
CIRCLE
5
116
100
AcDbEntity
8
0
100
AcDbCircle
10
-9.9999618530214303
20
409.99999999999721
30
0
40
6.5000000000000053
210
0
220
0
230
1
0
CIRCLE
5
117
100
AcDbEntity
8
0
100
AcDbCircle
10
-133.99996185302126
20
285.99999999999756
30
0
40
6.5000000000000071
210
0
220
0
230
1
0
CIRCLE
5
118
100
AcDbEntity
8
0
100
AcDbCircle
10
-9.9999618530214214
20
285.99999999999761
30
0
40
6.4999999999999991
210
0
220
0
230
1
0
ENDSEC
0
SECTION
2
OBJECTS
0
DICTIONARY
5
C
100
AcDbDictionary
3
ACAD_GROUP
350
D
3
ACAD_MLINESTYLE
350
17
0
DICTIONARY
5
D
100
AcDbDictionary
0
DICTIONARY
5
1A
330
C
100
AcDbDictionary
0
DICTIONARY
5
17
100
AcDbDictionary
0
ENDSEC
0
EOF
