ISO-10303-21;
HEADER;
/* Generated by software containing ST-Developer
 * from STEP Tools, Inc. (www.steptools.com) 
 */

FILE_DESCRIPTION(
/* description */ (''),
/* implementation_level */ '2;1');

FILE_NAME(
/* name */ 'C:/Users/steve/Desktop/60mm Shaft Jig v2.step',
/* time_stamp */ '2020-05-19T13:25:15-04:00',
/* author */ (''),
/* organization */ (''),
/* preprocessor_version */ 'ST-DEVELOPER v18.1',
/* originating_system */ 'Autodesk Translation Framework v9.3.0.1241',
/* authorisation */ '');

FILE_SCHEMA (('AUTOMOTIVE_DESIGN { 1 0 10303 214 3 1 1 }'));
ENDSEC;

DATA;
#10=MECHANICAL_DESIGN_GEOMETRIC_PRESENTATION_REPRESENTATION('',(#13),#251);
#11=SHAPE_REPRESENTATION_RELATIONSHIP('SRR','None',#258,#12);
#12=ADVANCED_BREP_SHAPE_REPRESENTATION('',(#14),#250);
#13=STYLED_ITEM('',(#267),#14);
#14=MANIFOLD_SOLID_BREP('Body1',#147);
#15=PLANE('',#164);
#16=PLANE('',#165);
#17=PLANE('',#166);
#18=PLANE('',#167);
#19=PLANE('',#168);
#20=PLANE('',#169);
#21=PLANE('',#170);
#22=FACE_OUTER_BOUND('',#30,.T.);
#23=FACE_OUTER_BOUND('',#31,.T.);
#24=FACE_OUTER_BOUND('',#32,.T.);
#25=FACE_OUTER_BOUND('',#33,.T.);
#26=FACE_OUTER_BOUND('',#34,.T.);
#27=FACE_OUTER_BOUND('',#35,.T.);
#28=FACE_OUTER_BOUND('',#36,.T.);
#29=FACE_OUTER_BOUND('',#37,.T.);
#30=EDGE_LOOP('',(#102,#103,#104,#105));
#31=EDGE_LOOP('',(#106,#107));
#32=EDGE_LOOP('',(#108,#109,#110,#111,#112,#113,#114,#115));
#33=EDGE_LOOP('',(#116,#117,#118,#119));
#34=EDGE_LOOP('',(#120,#121,#122,#123));
#35=EDGE_LOOP('',(#124,#125,#126,#127));
#36=EDGE_LOOP('',(#128,#129,#130,#131,#132,#133));
#37=EDGE_LOOP('',(#134,#135,#136,#137));
#38=LINE('',#215,#54);
#39=LINE('',#218,#55);
#40=LINE('',#220,#56);
#41=LINE('',#223,#57);
#42=LINE('',#225,#58);
#43=LINE('',#227,#59);
#44=LINE('',#229,#60);
#45=LINE('',#230,#61);
#46=LINE('',#233,#62);
#47=LINE('',#235,#63);
#48=LINE('',#236,#64);
#49=LINE('',#239,#65);
#50=LINE('',#240,#66);
#51=LINE('',#243,#67);
#52=LINE('',#244,#68);
#53=LINE('',#246,#69);
#54=VECTOR('',#177,10.);
#55=VECTOR('',#180,10.);
#56=VECTOR('',#183,10.);
#57=VECTOR('',#186,10.);
#58=VECTOR('',#187,10.);
#59=VECTOR('',#188,10.);
#60=VECTOR('',#189,10.);
#61=VECTOR('',#190,10.);
#62=VECTOR('',#193,10.);
#63=VECTOR('',#194,10.);
#64=VECTOR('',#195,10.);
#65=VECTOR('',#198,10.);
#66=VECTOR('',#199,10.);
#67=VECTOR('',#202,10.);
#68=VECTOR('',#203,10.);
#69=VECTOR('',#206,10.);
#70=CIRCLE('',#162,2.7);
#71=CIRCLE('',#163,2.7);
#72=VERTEX_POINT('',#211);
#73=VERTEX_POINT('',#212);
#74=VERTEX_POINT('',#214);
#75=VERTEX_POINT('',#216);
#76=VERTEX_POINT('',#222);
#77=VERTEX_POINT('',#224);
#78=VERTEX_POINT('',#226);
#79=VERTEX_POINT('',#228);
#80=VERTEX_POINT('',#232);
#81=VERTEX_POINT('',#234);
#82=VERTEX_POINT('',#238);
#83=VERTEX_POINT('',#242);
#84=EDGE_CURVE('',#72,#73,#70,.F.);
#85=EDGE_CURVE('',#74,#72,#38,.T.);
#86=EDGE_CURVE('',#75,#74,#71,.T.);
#87=EDGE_CURVE('',#73,#75,#39,.T.);
#88=EDGE_CURVE('',#72,#73,#40,.T.);
#89=EDGE_CURVE('',#75,#76,#41,.T.);
#90=EDGE_CURVE('',#76,#77,#42,.T.);
#91=EDGE_CURVE('',#77,#78,#43,.T.);
#92=EDGE_CURVE('',#78,#79,#44,.T.);
#93=EDGE_CURVE('',#79,#74,#45,.T.);
#94=EDGE_CURVE('',#76,#80,#46,.T.);
#95=EDGE_CURVE('',#81,#80,#47,.T.);
#96=EDGE_CURVE('',#77,#81,#48,.T.);
#97=EDGE_CURVE('',#82,#81,#49,.T.);
#98=EDGE_CURVE('',#78,#82,#50,.T.);
#99=EDGE_CURVE('',#83,#82,#51,.T.);
#100=EDGE_CURVE('',#79,#83,#52,.T.);
#101=EDGE_CURVE('',#80,#83,#53,.T.);
#102=ORIENTED_EDGE('',*,*,#84,.F.);
#103=ORIENTED_EDGE('',*,*,#85,.F.);
#104=ORIENTED_EDGE('',*,*,#86,.F.);
#105=ORIENTED_EDGE('',*,*,#87,.F.);
#106=ORIENTED_EDGE('',*,*,#88,.F.);
#107=ORIENTED_EDGE('',*,*,#84,.T.);
#108=ORIENTED_EDGE('',*,*,#85,.T.);
#109=ORIENTED_EDGE('',*,*,#88,.T.);
#110=ORIENTED_EDGE('',*,*,#87,.T.);
#111=ORIENTED_EDGE('',*,*,#89,.T.);
#112=ORIENTED_EDGE('',*,*,#90,.T.);
#113=ORIENTED_EDGE('',*,*,#91,.T.);
#114=ORIENTED_EDGE('',*,*,#92,.T.);
#115=ORIENTED_EDGE('',*,*,#93,.T.);
#116=ORIENTED_EDGE('',*,*,#90,.F.);
#117=ORIENTED_EDGE('',*,*,#94,.T.);
#118=ORIENTED_EDGE('',*,*,#95,.F.);
#119=ORIENTED_EDGE('',*,*,#96,.F.);
#120=ORIENTED_EDGE('',*,*,#91,.F.);
#121=ORIENTED_EDGE('',*,*,#96,.T.);
#122=ORIENTED_EDGE('',*,*,#97,.F.);
#123=ORIENTED_EDGE('',*,*,#98,.F.);
#124=ORIENTED_EDGE('',*,*,#92,.F.);
#125=ORIENTED_EDGE('',*,*,#98,.T.);
#126=ORIENTED_EDGE('',*,*,#99,.F.);
#127=ORIENTED_EDGE('',*,*,#100,.F.);
#128=ORIENTED_EDGE('',*,*,#86,.T.);
#129=ORIENTED_EDGE('',*,*,#93,.F.);
#130=ORIENTED_EDGE('',*,*,#100,.T.);
#131=ORIENTED_EDGE('',*,*,#101,.F.);
#132=ORIENTED_EDGE('',*,*,#94,.F.);
#133=ORIENTED_EDGE('',*,*,#89,.F.);
#134=ORIENTED_EDGE('',*,*,#101,.T.);
#135=ORIENTED_EDGE('',*,*,#99,.T.);
#136=ORIENTED_EDGE('',*,*,#97,.T.);
#137=ORIENTED_EDGE('',*,*,#95,.T.);
#138=CYLINDRICAL_SURFACE('',#161,2.7);
#139=ADVANCED_FACE('',(#22),#138,.F.);
#140=ADVANCED_FACE('',(#23),#15,.F.);
#141=ADVANCED_FACE('',(#24),#16,.F.);
#142=ADVANCED_FACE('',(#25),#17,.T.);
#143=ADVANCED_FACE('',(#26),#18,.T.);
#144=ADVANCED_FACE('',(#27),#19,.T.);
#145=ADVANCED_FACE('',(#28),#20,.T.);
#146=ADVANCED_FACE('',(#29),#21,.T.);
#147=CLOSED_SHELL('',(#139,#140,#141,#142,#143,#144,#145,#146));
#148=DERIVED_UNIT_ELEMENT(#150,1.);
#149=DERIVED_UNIT_ELEMENT(#253,3.);
#150=(
MASS_UNIT()
NAMED_UNIT(*)
SI_UNIT(.KILO.,.GRAM.)
);
#151=DERIVED_UNIT((#148,#149));
#152=MEASURE_REPRESENTATION_ITEM('density measure',
POSITIVE_RATIO_MEASURE(7850.),#151);
#153=PROPERTY_DEFINITION_REPRESENTATION(#158,#155);
#154=PROPERTY_DEFINITION_REPRESENTATION(#159,#156);
#155=REPRESENTATION('material name',(#157),#250);
#156=REPRESENTATION('density',(#152),#250);
#157=DESCRIPTIVE_REPRESENTATION_ITEM('Steel','Steel');
#158=PROPERTY_DEFINITION('material property','material name',#260);
#159=PROPERTY_DEFINITION('material property','density of part',#260);
#160=AXIS2_PLACEMENT_3D('placement',#209,#171,#172);
#161=AXIS2_PLACEMENT_3D('',#210,#173,#174);
#162=AXIS2_PLACEMENT_3D('',#213,#175,#176);
#163=AXIS2_PLACEMENT_3D('',#217,#178,#179);
#164=AXIS2_PLACEMENT_3D('',#219,#181,#182);
#165=AXIS2_PLACEMENT_3D('',#221,#184,#185);
#166=AXIS2_PLACEMENT_3D('',#231,#191,#192);
#167=AXIS2_PLACEMENT_3D('',#237,#196,#197);
#168=AXIS2_PLACEMENT_3D('',#241,#200,#201);
#169=AXIS2_PLACEMENT_3D('',#245,#204,#205);
#170=AXIS2_PLACEMENT_3D('',#247,#207,#208);
#171=DIRECTION('axis',(0.,0.,1.));
#172=DIRECTION('refdir',(1.,0.,0.));
#173=DIRECTION('center_axis',(0.,1.,2.22044604925031E-16));
#174=DIRECTION('ref_axis',(-1.83697019872103E-16,-2.22044604925031E-16,
1.));
#175=DIRECTION('center_axis',(0.,1.,2.22044604925031E-16));
#176=DIRECTION('ref_axis',(1.,0.,0.));
#177=DIRECTION('',(0.,1.,2.22044604925031E-16));
#178=DIRECTION('center_axis',(0.,1.,2.22044604925031E-16));
#179=DIRECTION('ref_axis',(1.,0.,0.));
#180=DIRECTION('',(0.,-1.,-2.22044604925031E-16));
#181=DIRECTION('center_axis',(0.,1.,2.22044604925031E-16));
#182=DIRECTION('ref_axis',(-1.,0.,0.));
#183=DIRECTION('',(-1.,0.,0.));
#184=DIRECTION('center_axis',(0.,-2.22044604925031E-16,1.));
#185=DIRECTION('ref_axis',(1.,0.,0.));
#186=DIRECTION('',(-1.,0.,0.));
#187=DIRECTION('',(0.,1.,2.22044604925031E-16));
#188=DIRECTION('',(1.,0.,0.));
#189=DIRECTION('',(0.,-1.,-2.22044604925031E-16));
#190=DIRECTION('',(-1.,0.,0.));
#191=DIRECTION('center_axis',(-1.,0.,0.));
#192=DIRECTION('ref_axis',(0.,-1.,-2.22044604925031E-16));
#193=DIRECTION('',(0.,-2.22044604925031E-16,1.));
#194=DIRECTION('',(0.,-1.,-2.22044604925031E-16));
#195=DIRECTION('',(0.,-2.22044604925031E-16,1.));
#196=DIRECTION('center_axis',(0.,1.,2.22044604925031E-16));
#197=DIRECTION('ref_axis',(-1.,0.,0.));
#198=DIRECTION('',(-1.,0.,0.));
#199=DIRECTION('',(0.,-2.22044604925031E-16,1.));
#200=DIRECTION('center_axis',(1.,0.,0.));
#201=DIRECTION('ref_axis',(0.,1.,2.22044604925031E-16));
#202=DIRECTION('',(0.,1.,2.22044604925031E-16));
#203=DIRECTION('',(0.,-2.22044604925031E-16,1.));
#204=DIRECTION('center_axis',(0.,-1.,-2.22044604925031E-16));
#205=DIRECTION('ref_axis',(1.,0.,0.));
#206=DIRECTION('',(1.,0.,0.));
#207=DIRECTION('center_axis',(0.,-2.22044604925031E-16,1.));
#208=DIRECTION('ref_axis',(0.,-1.,-2.22044604925031E-16));
#209=CARTESIAN_POINT('',(0.,0.,0.));
#210=CARTESIAN_POINT('Origin',(6.,-57.,-6.00427059072375));
#211=CARTESIAN_POINT('',(7.81853350943825,4.,-8.));
#212=CARTESIAN_POINT('',(4.18146649056175,4.,-8.));
#213=CARTESIAN_POINT('Origin',(6.,4.,-6.00427059072374));
#214=CARTESIAN_POINT('',(7.81853350943825,-57.,-8.00000000000002));
#215=CARTESIAN_POINT('',(7.81853350943825,-57.,-8.00000000000002));
#216=CARTESIAN_POINT('',(4.18146649056175,-57.,-8.00000000000002));
#217=CARTESIAN_POINT('Origin',(6.,-57.,-6.00427059072375));
#218=CARTESIAN_POINT('',(4.18146649056175,-57.,-8.00000000000002));
#219=CARTESIAN_POINT('Origin',(6.,4.,-5.65213529536187));
#220=CARTESIAN_POINT('',(6.,4.,-8.));
#221=CARTESIAN_POINT('Origin',(6.,-24.5,-8.00000000000001));
#222=CARTESIAN_POINT('',(0.,-57.,-8.00000000000002));
#223=CARTESIAN_POINT('',(12.,-57.,-8.00000000000002));
#224=CARTESIAN_POINT('',(0.,8.,-8.));
#225=CARTESIAN_POINT('',(0.,-57.,-8.00000000000002));
#226=CARTESIAN_POINT('',(12.,8.,-8.));
#227=CARTESIAN_POINT('',(0.,8.,-8.));
#228=CARTESIAN_POINT('',(12.,-57.,-8.00000000000002));
#229=CARTESIAN_POINT('',(12.,8.,-8.));
#230=CARTESIAN_POINT('',(12.,-57.,-8.00000000000002));
#231=CARTESIAN_POINT('Origin',(0.,8.,-8.));
#232=CARTESIAN_POINT('',(0.,-57.,-1.66533453693773E-14));
#233=CARTESIAN_POINT('',(0.,-57.,-8.00000000000002));
#234=CARTESIAN_POINT('',(0.,8.,-2.22044604925031E-15));
#235=CARTESIAN_POINT('',(0.,-57.,-1.66533453693773E-14));
#236=CARTESIAN_POINT('',(0.,8.,-8.));
#237=CARTESIAN_POINT('Origin',(12.,8.,-8.));
#238=CARTESIAN_POINT('',(12.,8.,-2.22044604925031E-15));
#239=CARTESIAN_POINT('',(0.,8.,-2.22044604925031E-15));
#240=CARTESIAN_POINT('',(12.,8.,-8.));
#241=CARTESIAN_POINT('Origin',(12.,-57.,-8.00000000000002));
#242=CARTESIAN_POINT('',(12.,-57.,-1.66533453693773E-14));
#243=CARTESIAN_POINT('',(12.,8.,-2.22044604925031E-15));
#244=CARTESIAN_POINT('',(12.,-57.,-8.00000000000002));
#245=CARTESIAN_POINT('Origin',(0.,-57.,-8.00000000000002));
#246=CARTESIAN_POINT('',(12.,-57.,-1.66533453693773E-14));
#247=CARTESIAN_POINT('Origin',(6.,-24.5,-8.88178419700125E-15));
#248=UNCERTAINTY_MEASURE_WITH_UNIT(LENGTH_MEASURE(0.01),#252,
'DISTANCE_ACCURACY_VALUE',
'Maximum model space distance between geometric entities at asserted c
onnectivities');
#249=UNCERTAINTY_MEASURE_WITH_UNIT(LENGTH_MEASURE(0.01),#252,
'DISTANCE_ACCURACY_VALUE',
'Maximum model space distance between geometric entities at asserted c
onnectivities');
#250=(
GEOMETRIC_REPRESENTATION_CONTEXT(3)
GLOBAL_UNCERTAINTY_ASSIGNED_CONTEXT((#248))
GLOBAL_UNIT_ASSIGNED_CONTEXT((#252,#254,#255))
REPRESENTATION_CONTEXT('','3D')
);
#251=(
GEOMETRIC_REPRESENTATION_CONTEXT(3)
GLOBAL_UNCERTAINTY_ASSIGNED_CONTEXT((#249))
GLOBAL_UNIT_ASSIGNED_CONTEXT((#252,#254,#255))
REPRESENTATION_CONTEXT('','3D')
);
#252=(
LENGTH_UNIT()
NAMED_UNIT(*)
SI_UNIT(.MILLI.,.METRE.)
);
#253=(
LENGTH_UNIT()
NAMED_UNIT(*)
SI_UNIT($,.METRE.)
);
#254=(
NAMED_UNIT(*)
PLANE_ANGLE_UNIT()
SI_UNIT($,.RADIAN.)
);
#255=(
NAMED_UNIT(*)
SI_UNIT($,.STERADIAN.)
SOLID_ANGLE_UNIT()
);
#256=SHAPE_DEFINITION_REPRESENTATION(#257,#258);
#257=PRODUCT_DEFINITION_SHAPE('',$,#260);
#258=SHAPE_REPRESENTATION('',(#160),#250);
#259=PRODUCT_DEFINITION_CONTEXT('part definition',#264,'design');
#260=PRODUCT_DEFINITION('60mm Shaft Jig','60mm Shaft Jig v2',#261,#259);
#261=PRODUCT_DEFINITION_FORMATION('',$,#266);
#262=PRODUCT_RELATED_PRODUCT_CATEGORY('60mm Shaft Jig v2',
'60mm Shaft Jig v2',(#266));
#263=APPLICATION_PROTOCOL_DEFINITION('international standard',
'automotive_design',2009,#264);
#264=APPLICATION_CONTEXT(
'Core Data for Automotive Mechanical Design Process');
#265=PRODUCT_CONTEXT('part definition',#264,'mechanical');
#266=PRODUCT('60mm Shaft Jig','60mm Shaft Jig v2',$,(#265));
#267=PRESENTATION_STYLE_ASSIGNMENT((#268));
#268=SURFACE_STYLE_USAGE(.BOTH.,#269);
#269=SURFACE_SIDE_STYLE('',(#270));
#270=SURFACE_STYLE_FILL_AREA(#271);
#271=FILL_AREA_STYLE('Steel - Satin',(#272));
#272=FILL_AREA_STYLE_COLOUR('Steel - Satin',#273);
#273=COLOUR_RGB('Steel - Satin',0.627450980392157,0.627450980392157,0.627450980392157);
ENDSEC;
END-ISO-10303-21;
