0
SECTION
2
HEADER
9
$INSUNITS
70
4
9
$ACADVER
1
AC1014
9
$HANDSEED
5
FFFF
0
ENDSEC
0
SECTION
2
TABLES
0
TABLE
2
VPORT
5
8
100
AcDbSymbolTable
0
ENDTAB
0
TABLE
2
LTYPE
5
5
100
AcDbSymbolTable
0
LTYPE
5
14
100
AcDbSymbolTableRecord
100
AcDbLinetypeTableRecord
2
BYBLOCK
70
0
0
LTYPE
5
15
100
AcDbSymbolTableRecord
100
AcDbLinetypeTableRecord
2
BYLAYER
70
0
0
ENDTAB
0
TABLE
2
LAYER
5
2
100
AcDbSymbolTable
70
2
0
LAYER
5
50
100
AcDbSymbolTableRecord
100
AcDbLayerTableRecord
2
0
70
0
6
CONTINUOUS
0
ENDTAB
0
TABLE
2
STYLE
5
3
100
AcDbSymbolTable
70
1
0
STYLE
5
11
100
AcDbSymbolTableRecord
100
AcDbTextStyleTableRecord
2
STANDARD
70
0
0
ENDTAB
0
TABLE
2
VIEW
5
6
100
AcDbSymbolTable
70
0
0
ENDTAB
0
TABLE
2
UCS
5
7
100
AcDbSymbolTable
70
0
0
ENDTAB
0
TABLE
2
APPID
5
9
100
AcDbSymbolTable
70
2
0
APPID
5
12
100
AcDbSymbolTableRecord
100
AcDbRegAppTableRecord
2
ACAD
70
0
0
ENDTAB
0
TABLE
2
DIMSTYLE
5
A
100
AcDbSymbolTable
70
1
0
ENDTAB
0
TABLE
2
BLOCK_RECORD
5
1
100
AcDbSymbolTable
70
1
0
BLOCK_RECORD
5
1F
100
AcDbSymbolTableRecord
100
AcDbBlockTableRecord
2
*MODEL_SPACE
0
BLOCK_RECORD
5
1B
100
AcDbSymbolTableRecord
100
AcDbBlockTableRecord
2
*PAPER_SPACE
0
ENDTAB
0
ENDSEC
0
SECTION
2
BLOCKS
0
BLOCK
5
20
100
AcDbEntity
100
AcDbBlockBegin
2
*MODEL_SPACE
0
ENDBLK
5
21
100
AcDbEntity
100
AcDbBlockEnd
0
BLOCK
5
1C
100
AcDbEntity
100
AcDbBlockBegin
2
*PAPER_SPACE
0
ENDBLK
5
1D
100
AcDbEntity
100
AcDbBlockEnd
0
ENDSEC
0
SECTION
2
ENTITIES
0
ARC
5
100
100
AcDbEntity
8
0
100
AcDbCircle
10
290.99989019772732
20
26.106006530112129
30
5.6752587805155091e-43
40
2.0000000000000107
210
3.5460814730073027e-31
220
-5.0487097934144756e-29
230
1
100
AcDbArc
50
270
51
360
0
LINE
5
101
100
AcDbEntity
8
0
100
AcDbLine
10
292.99989019772732
20
26.106006530112118
30
-7.0921629052153969e-31
11
292.99989019772732
21
40.106006530112133
31
0
0
ARC
5
102
100
AcDbEntity
8
0
100
AcDbCircle
10
290.99989019772732
20
40.106006530112126
30
-1.4538471567369977e-43
40
1.9999999999999929
210
-1.2976382644941541e-29
220
2.2369432734555133e-43
230
1
100
AcDbArc
50
0
51
90
0
LINE
5
103
100
AcDbEntity
8
0
100
AcDbLine
10
290.99989019772732
20
42.106006530112118
30
-1.1736561589612351e-43
11
34.999890197727304
21
42.106006530112133
31
-3.6882867619640102e-37
0
ARC
5
104
100
AcDbEntity
8
0
100
AcDbCircle
10
34.999890197727325
20
40.106006530112133
30
1.7763568394002505e-14
40
2.0000000000000018
210
-1.4116627972924864e-28
220
8.8817841970012444e-15
230
1
100
AcDbArc
50
90.000000000000611
51
180
0
LINE
5
105
100
AcDbEntity
8
0
100
AcDbLine
10
32.999890197727318
20
40.106006530112154
30
1.7763568394002479e-14
11
32.999890197727318
21
26.106006530112133
31
0
0
ARC
5
106
100
AcDbEntity
8
0
100
AcDbCircle
10
34.999890197727325
20
26.10600653011214
30
5.6051938572992683e-43
40
2.0000000000000062
210
-1.6815581571897681e-43
220
-5.0487097934145092e-29
230
1
100
AcDbArc
50
180
51
269.9999999999996
0
LINE
5
107
100
AcDbEntity
8
0
100
AcDbLine
10
34.999890197727311
20
24.106006530112133
30
-1.0097419586828939e-28
11
290.99989019772732
21
24.106006530112118
31
-1.0097419586828949e-28
0
CIRCLE
5
108
100
AcDbEntity
8
0
100
AcDbCircle
10
122.99989019772731
20
33.106006530112133
30
-1.7763568394002505e-14
40
1.7000000000031417
210
-1.2621774484981541e-29
220
5.0487097934144756e-29
230
1
0
CIRCLE
5
109
100
AcDbEntity
8
0
100
AcDbCircle
10
202.99989019772727
20
33.106006530112133
30
0
40
1.7000000000031501
210
-1.4453524534918922e-39
220
-5.8241340210867749e-66
230
1
0
CIRCLE
5
110
100
AcDbEntity
8
0
100
AcDbCircle
10
242.99989019772727
20
33.106006530112133
30
0
40
1.7000000000031543
210
-1.445352453491891e-39
220
-5.0487097934144756e-29
230
1
0
CIRCLE
5
111
100
AcDbEntity
8
0
100
AcDbCircle
10
162.99989019772727
20
33.106006530112133
30
0
40
1.7000000000031457
210
-1.4453524534918889e-39
220
5.0487097934144767e-29
230
1
0
CIRCLE
5
112
100
AcDbEntity
8
0
100
AcDbCircle
10
53.999890197729769
20
38.106006530112325
30
0
40
1
210
-1.2621774483536189e-29
220
-0
230
1
0
CIRCLE
5
113
100
AcDbEntity
8
0
100
AcDbCircle
10
53.999890197729769
20
28.106006530112325
30
1.7763568394002505e-14
40
1
210
-1.2621774483536189e-29
220
-0
230
1
0
CIRCLE
5
114
100
AcDbEntity
8
0
100
AcDbCircle
10
61.999890197729769
20
33.106006530112325
30
-1.7763568394002505e-14
40
1
210
-1.2621774483536189e-29
220
-0
230
1
0
CIRCLE
5
115
100
AcDbEntity
8
0
100
AcDbCircle
10
82.999890197727311
20
33.106006530112133
30
-1.7763568394002505e-14
40
1.7000000000023983
210
-1.2621774484981544e-29
220
5.0487097934144767e-29
230
1
0
CIRCLE
5
116
100
AcDbEntity
8
0
100
AcDbCircle
10
282.99989019772727
20
33.106006530112133
30
-1.7763568394002505e-14
40
1.7000000000024198
210
-1.445352453491892e-39
220
-5.0487097934144756e-29
230
1
0
CIRCLE
5
117
100
AcDbEntity
8
0
100
AcDbCircle
10
57.999890197729769
20
33.106006530112325
30
-1.7763568394002505e-14
40
1
210
-1.2621774483536189e-29
220
1.448908652612274e-70
230
1
0
CIRCLE
5
118
100
AcDbEntity
8
0
100
AcDbCircle
10
69.999890197729769
20
33.106006530112325
30
-1.7763568394002505e-14
40
1
210
-1.2621774483536189e-29
220
1.448908652612274e-70
230
1
0
CIRCLE
5
119
100
AcDbEntity
8
0
100
AcDbCircle
10
42.999890197727304
20
33.106006530112133
30
-1.7763568394002505e-14
40
1.6999999999990241
210
1.2621774482090836e-29
220
5.1038650810399971e-56
230
1
0
LWPOLYLINE
5
120
100
AcDbEntity
8
0
100
AcDbPolyline
90
4
70
1
43
0.0
10
262.99989019772727
20
37.003120847142142
10
268.73604262043398
20
33.691351701779716
10
268.73604262043398
20
36.289427913133032
10
262.99989019772727
20
39.601197058495472
0
LWPOLYLINE
5
121
100
AcDbEntity
8
0
100
AcDbPolyline
90
4
70
1
43
0.0
10
257.26373777502056
20
37.716813781151195
10
257.26373777502056
20
35.118737569797879
10
268.73604262043392
20
28.495199279073049
10
268.73604262043392
20
31.093275490426372
0
LWPOLYLINE
5
122
100
AcDbEntity
8
0
100
AcDbPolyline
90
4
70
1
43
0.0
10
257.26373777502056
20
32.520661358444563
10
257.26373777502056
20
29.922585147091244
10
262.99989019772727
20
26.610816001728814
10
262.99989019772727
20
29.208892213082123
0
ENDSEC
0
SECTION
2
OBJECTS
0
DICTIONARY
5
C
100
AcDbDictionary
3
ACAD_GROUP
350
D
3
ACAD_MLINESTYLE
350
17
0
DICTIONARY
5
D
100
AcDbDictionary
0
DICTIONARY
5
1A
330
C
100
AcDbDictionary
0
DICTIONARY
5
17
100
AcDbDictionary
0
ENDSEC
0
EOF
