0
SECTION
2
HEADER
9
$INSUNITS
70
4
9
$ACADVER
1
AC1014
9
$HANDSEED
5
FFFF
0
ENDSEC
0
SECTION
2
TABLES
0
TABLE
2
VPORT
5
8
100
AcDbSymbolTable
0
ENDTAB
0
TABLE
2
LTYPE
5
5
100
AcDbSymbolTable
0
LTYPE
5
14
100
AcDbSymbolTableRecord
100
AcDbLinetypeTableRecord
2
BYBLOCK
70
0
0
LTYPE
5
15
100
AcDbSymbolTableRecord
100
AcDbLinetypeTableRecord
2
BYLAYER
70
0
0
ENDTAB
0
TABLE
2
LAYER
5
2
100
AcDbSymbolTable
70
2
0
LAYER
5
50
100
AcDbSymbolTableRecord
100
AcDbLayerTableRecord
2
0
70
0
6
CONTINUOUS
0
ENDTAB
0
TABLE
2
STYLE
5
3
100
AcDbSymbolTable
70
1
0
STYLE
5
11
100
AcDbSymbolTableRecord
100
AcDbTextStyleTableRecord
2
STANDARD
70
0
0
ENDTAB
0
TABLE
2
VIEW
5
6
100
AcDbSymbolTable
70
0
0
ENDTAB
0
TABLE
2
UCS
5
7
100
AcDbSymbolTable
70
0
0
ENDTAB
0
TABLE
2
APPID
5
9
100
AcDbSymbolTable
70
2
0
APPID
5
12
100
AcDbSymbolTableRecord
100
AcDbRegAppTableRecord
2
ACAD
70
0
0
ENDTAB
0
TABLE
2
DIMSTYLE
5
A
100
AcDbSymbolTable
70
1
0
ENDTAB
0
TABLE
2
BLOCK_RECORD
5
1
100
AcDbSymbolTable
70
1
0
BLOCK_RECORD
5
1F
100
AcDbSymbolTableRecord
100
AcDbBlockTableRecord
2
*MODEL_SPACE
0
BLOCK_RECORD
5
1B
100
AcDbSymbolTableRecord
100
AcDbBlockTableRecord
2
*PAPER_SPACE
0
ENDTAB
0
ENDSEC
0
SECTION
2
BLOCKS
0
BLOCK
5
20
100
AcDbEntity
100
AcDbBlockBegin
2
*MODEL_SPACE
0
ENDBLK
5
21
100
AcDbEntity
100
AcDbBlockEnd
0
BLOCK
5
1C
100
AcDbEntity
100
AcDbBlockBegin
2
*PAPER_SPACE
0
ENDBLK
5
1D
100
AcDbEntity
100
AcDbBlockEnd
0
ENDSEC
0
SECTION
2
ENTITIES
0
ARC
5
100
100
AcDbEntity
8
0
100
AcDbCircle
10
315.99989019772738
20
26.106006530112115
30
-1.7763568394002505e-14
40
1.9999999999999929
210
3.5460814730073027e-31
220
5.0289882707839682e-29
230
1
100
AcDbArc
50
-90
51
0
0
LINE
5
101
100
AcDbEntity
8
0
100
AcDbLine
10
317.99989019772732
20
26.106006530112129
30
-1.7763568394002451e-14
11
317.99989019772732
21
40.106006530112133
31
0
0
ARC
5
102
100
AcDbEntity
8
0
100
AcDbCircle
10
315.99989019772738
20
40.10600653011214
30
6.7262326287591219e-43
40
1.9999999999999929
210
-1.4105879237922089e-38
220
2.813210424379504e-43
230
1
100
AcDbArc
50
0
51
90
0
LINE
5
103
100
AcDbEntity
8
0
100
AcDbLine
10
315.99989019772738
20
42.106006530112133
30
1.0097419586828989e-28
11
9.9998901977273036
21
42.106006530112133
31
-1.7763568394002505e-14
0
ARC
5
104
100
AcDbEntity
8
0
100
AcDbCircle
10
9.9998901977273231
20
40.106006530112133
30
1.5063958491491784e-43
40
2.0000000000000018
210
-1.4116627972924864e-28
220
8.8817841970012444e-15
230
1
100
AcDbArc
50
90.000000000000568
51
180
0
LINE
5
105
100
AcDbEntity
8
0
100
AcDbLine
10
7.9998901977273125
20
40.10600653011214
30
-2.5952765265746956e-29
11
7.9998901977273205
21
26.106006530112133
31
0
0
ARC
5
106
100
AcDbEntity
8
0
100
AcDbCircle
10
9.9998901977273249
20
26.106006530112133
30
-1.7763568394002501e-14
40
2.000000000000004
210
8.8817841970012334e-15
220
-3.0765575303619898e-29
230
1
100
AcDbArc
50
180
51
269.99999999999972
0
LINE
5
107
100
AcDbEntity
8
0
100
AcDbLine
10
9.9998901977273142
20
24.106006530112126
30
-1.7763568394002606e-14
11
315.99989019772738
21
24.106006530112122
31
-1.7763568394002404e-14
0
LWPOLYLINE
5
108
100
AcDbEntity
8
0
100
AcDbPolyline
90
4
70
1
43
0.0
10
277.26373777502056
20
37.716813781151195
10
277.26373777502056
20
35.118737569797879
10
288.73604262043386
20
28.495199279073049
10
288.73604262043386
20
31.093275490426372
0
LWPOLYLINE
5
109
100
AcDbEntity
8
0
100
AcDbPolyline
90
4
70
1
43
0.0
10
277.26373777502056
20
32.520661358444563
10
277.26373777502056
20
29.922585147091244
10
282.99989019772727
20
26.610816001728814
10
282.99989019772727
20
29.208892213082123
0
CIRCLE
5
110
100
AcDbEntity
8
0
100
AcDbCircle
10
102.9998901977273
20
33.106006530112133
30
-1.7763568394002505e-14
40
1.7000000000031417
210
-1.2621774484981541e-29
220
5.0487097934144756e-29
230
1
0
CIRCLE
5
111
100
AcDbEntity
8
0
100
AcDbCircle
10
182.99989019772727
20
33.106006530112133
30
0
40
1.7000000000031501
210
-1.4453524534918922e-39
220
-5.8241340210867749e-66
230
1
0
CIRCLE
5
112
100
AcDbEntity
8
0
100
AcDbCircle
10
222.99989019772727
20
33.106006530112133
30
0
40
1.7000000000031543
210
-1.445352453491891e-39
220
-5.0487097934144756e-29
230
1
0
CIRCLE
5
113
100
AcDbEntity
8
0
100
AcDbCircle
10
142.9998901977273
20
33.106006530112133
30
0
40
1.7000000000031457
210
-1.4453524534918889e-39
220
5.0487097934144767e-29
230
1
0
CIRCLE
5
114
100
AcDbEntity
8
0
100
AcDbCircle
10
26.999890197729762
20
38.106006530112325
30
0
40
1
210
-1.2621774483536189e-29
220
-0
230
1
0
CIRCLE
5
115
100
AcDbEntity
8
0
100
AcDbCircle
10
26.999890197729762
20
28.106006530112325
30
1.7763568394002505e-14
40
1
210
-1.2621774483536189e-29
220
-0
230
1
0
CIRCLE
5
116
100
AcDbEntity
8
0
100
AcDbCircle
10
34.999890197729762
20
33.106006530112325
30
0
40
1
210
-1.2621774483536189e-29
220
-0
230
1
0
CIRCLE
5
117
100
AcDbEntity
8
0
100
AcDbCircle
10
62.999890197727282
20
33.106006530112133
30
-1.7763568394002505e-14
40
1.7000000000023983
210
-1.2621774484981544e-29
220
5.0487097934144767e-29
230
1
0
CIRCLE
5
118
100
AcDbEntity
8
0
100
AcDbCircle
10
262.99989019772727
20
33.106006530112133
30
0
40
1.7000000000024198
210
-1.445352453491892e-39
220
-5.0487097934144756e-29
230
1
0
CIRCLE
5
119
100
AcDbEntity
8
0
100
AcDbCircle
10
30.999890197729762
20
33.106006530112325
30
-1.7763568394002505e-14
40
1
210
-1.2621774483536189e-29
220
1.448908652612274e-70
230
1
0
CIRCLE
5
120
100
AcDbEntity
8
0
100
AcDbCircle
10
22.999890197727279
20
33.106006530112133
30
-1.7763568394002505e-14
40
1.6999999999988169
210
-1.4453524534918917e-39
220
-5.8445695790555516e-66
230
1
0
LWPOLYLINE
5
121
100
AcDbEntity
8
0
100
AcDbPolyline
90
4
70
1
43
0.0
10
282.99989019772727
20
37.003120847142142
10
288.73604262043392
20
33.691351701779716
10
288.73604262043392
20
36.289427913133032
10
282.99989019772727
20
39.601197058495472
0
CIRCLE
5
122
100
AcDbEntity
8
0
100
AcDbCircle
10
42.999890197729769
20
33.106006530112332
30
-1.7763568394002505e-14
40
1
210
-1.2621774483536189e-29
220
1.448908652612274e-70
230
1
0
CIRCLE
5
123
100
AcDbEntity
8
0
100
AcDbCircle
10
302.99989019772727
20
33.106006530112133
30
-1.7763568394002505e-14
40
1.6999999999988591
210
1.2621774482090836e-29
220
-5.0487097934144756e-29
230
1
0
ENDSEC
0
SECTION
2
OBJECTS
0
DICTIONARY
5
C
100
AcDbDictionary
3
ACAD_GROUP
350
D
3
ACAD_MLINESTYLE
350
17
0
DICTIONARY
5
D
100
AcDbDictionary
0
DICTIONARY
5
1A
330
C
100
AcDbDictionary
0
DICTIONARY
5
17
100
AcDbDictionary
0
ENDSEC
0
EOF
