0
SECTION
2
HEADER
9
$INSUNITS
70
4
9
$ACADVER
1
AC1014
9
$HANDSEED
5
FFFF
0
ENDSEC
0
SECTION
2
TABLES
0
TABLE
2
VPORT
5
8
100
AcDbSymbolTable
0
ENDTAB
0
TABLE
2
LTYPE
5
5
100
AcDbSymbolTable
0
LTYPE
5
14
100
AcDbSymbolTableRecord
100
AcDbLinetypeTableRecord
2
BYBLOCK
70
0
0
LTYPE
5
15
100
AcDbSymbolTableRecord
100
AcDbLinetypeTableRecord
2
BYLAYER
70
0
0
ENDTAB
0
TABLE
2
LAYER
5
2
100
AcDbSymbolTable
70
2
0
LAYER
5
50
100
AcDbSymbolTableRecord
100
AcDbLayerTableRecord
2
0
70
0
6
CONTINUOUS
0
ENDTAB
0
TABLE
2
STYLE
5
3
100
AcDbSymbolTable
70
1
0
STYLE
5
11
100
AcDbSymbolTableRecord
100
AcDbTextStyleTableRecord
2
STANDARD
70
0
0
ENDTAB
0
TABLE
2
VIEW
5
6
100
AcDbSymbolTable
70
0
0
ENDTAB
0
TABLE
2
UCS
5
7
100
AcDbSymbolTable
70
0
0
ENDTAB
0
TABLE
2
APPID
5
9
100
AcDbSymbolTable
70
2
0
APPID
5
12
100
AcDbSymbolTableRecord
100
AcDbRegAppTableRecord
2
ACAD
70
0
0
ENDTAB
0
TABLE
2
DIMSTYLE
5
A
100
AcDbSymbolTable
70
1
0
ENDTAB
0
TABLE
2
BLOCK_RECORD
5
1
100
AcDbSymbolTable
70
1
0
BLOCK_RECORD
5
1F
100
AcDbSymbolTableRecord
100
AcDbBlockTableRecord
2
*MODEL_SPACE
0
BLOCK_RECORD
5
1B
100
AcDbSymbolTableRecord
100
AcDbBlockTableRecord
2
*PAPER_SPACE
0
ENDTAB
0
ENDSEC
0
SECTION
2
BLOCKS
0
BLOCK
5
20
100
AcDbEntity
100
AcDbBlockBegin
2
*MODEL_SPACE
0
ENDBLK
5
21
100
AcDbEntity
100
AcDbBlockEnd
0
BLOCK
5
1C
100
AcDbEntity
100
AcDbBlockBegin
2
*PAPER_SPACE
0
ENDBLK
5
1D
100
AcDbEntity
100
AcDbBlockEnd
0
ENDSEC
0
SECTION
2
ENTITIES
0
ARC
5
100
100
AcDbEntity
8
0
100
AcDbCircle
10
280.99989069374408
20
26.106006505617994
30
7.7071415537864939e-43
40
1.9999999999999929
210
3.5460814684006628e-31
220
5.0487097934144498e-29
230
1
100
AcDbArc
50
-90
51
0
0
LINE
5
101
100
AcDbEntity
8
0
100
AcDbLine
10
282.99989069374408
20
26.106006505618005
30
5.3035725503452962e-29
11
282.99989069374408
21
40.106006505618019
31
-1.7763568394002505e-14
0
ARC
5
102
100
AcDbEntity
8
0
100
AcDbCircle
10
280.99989069374408
20
40.106006505618026
30
6.8663624751916036e-43
40
1.9999999999999929
210
-1.4063443006179563e-38
220
5.048709793414489e-29
230
1
100
AcDbArc
50
0
51
90
0
LINE
5
103
100
AcDbEntity
8
0
100
AcDbLine
10
280.99989069374408
20
42.106006505618019
30
1.0097419586828987e-28
11
44.999890693744042
21
42.106006505618012
31
-3.4122805554022897e-37
0
ARC
5
104
100
AcDbEntity
8
0
100
AcDbCircle
10
44.999890693744071
20
40.106006505618012
30
1.2191296639625909e-42
40
2.0000000000000018
210
-1.2976382630375103e-29
220
1.7061446445480102e-37
230
1
100
AcDbArc
50
90.00000000000081
51
180
0
LINE
5
105
100
AcDbEntity
8
0
100
AcDbLine
10
42.999890693744057
20
40.106006505618019
30
-2.5952765260752464e-29
11
42.999890693744064
21
26.106006505618019
31
0
0
ARC
5
106
100
AcDbEntity
8
0
100
AcDbCircle
10
44.999890693744071
20
26.106006505618026
30
-1.5414283107572988e-43
40
2.0000000000000107
210
-1.2267166350759766e-29
220
-5.0487097934145103e-29
230
1
100
AcDbArc
50
180
51
269.99999999999983
0
LINE
5
107
100
AcDbEntity
8
0
100
AcDbLine
10
44.999890693744064
20
24.106006505618012
30
1.0097419586828948e-28
11
280.99989069374408
21
24.106006505618002
31
1.009741958682894e-28
0
LWPOLYLINE
5
108
100
AcDbEntity
8
0
100
AcDbPolyline
90
4
70
1
43
0.0
10
272.99989069374402
20
37.003120822648022
10
278.73604311645073
20
33.691351677285589
10
278.73604311645073
20
36.289427888638912
10
272.99989069374402
20
39.601197034001345
0
LWPOLYLINE
5
109
100
AcDbEntity
8
0
100
AcDbPolyline
90
4
70
1
43
0.0
10
267.26373827103731
20
37.716813756657075
10
267.26373827103731
20
35.118737545303745
10
278.73604311645062
20
28.495199254578921
10
278.73604311645062
20
31.093275465932244
0
LWPOLYLINE
5
110
100
AcDbEntity
8
0
100
AcDbPolyline
90
4
70
1
43
0.0
10
267.26373827103731
20
32.520661333950436
10
267.26373827103731
20
29.922585122597116
10
272.99989069374402
20
26.610815977234687
10
272.99989069374402
20
29.208892188587999
0
CIRCLE
5
111
100
AcDbEntity
8
0
100
AcDbCircle
10
62.999890693744049
20
33.106006505618019
30
-1.7763568394002505e-14
40
1.7000000000031372
210
-1.4453524535447582e-39
220
-2.580843646180686e-62
230
1
0
CIRCLE
5
112
100
AcDbEntity
8
0
100
AcDbCircle
10
102.99989069374405
20
33.106006505618019
30
-1.7763568394002505e-14
40
1.7000000000031417
210
-1.4453524535447546e-39
220
-2.5808436461806795e-62
230
1
0
CIRCLE
5
113
100
AcDbEntity
8
0
100
AcDbCircle
10
182.99989069374402
20
33.106006505618019
30
0
40
1.7000000000031501
210
-1.4453524535447569e-39
220
-2.5808436461806834e-62
230
1
0
CIRCLE
5
114
100
AcDbEntity
8
0
100
AcDbCircle
10
222.99989069374402
20
33.106006505618019
30
0
40
1.7000000000031543
210
1.2621774482090836e-29
220
-5.0487097934144756e-29
230
1
0
CIRCLE
5
115
100
AcDbEntity
8
0
100
AcDbCircle
10
142.99989069374405
20
33.106006505618019
30
0
40
1.7000000000031457
210
-1.2621774484981544e-29
220
5.0487097934144767e-29
230
1
0
CIRCLE
5
116
100
AcDbEntity
8
0
100
AcDbCircle
10
262.99989069374402
20
33.106006505618019
30
0
40
1.7000000000021958
210
-1.4453524535447561e-39
220
-2.5808436461806821e-62
230
1
0
ENDSEC
0
SECTION
2
OBJECTS
0
DICTIONARY
5
C
100
AcDbDictionary
3
ACAD_GROUP
350
D
3
ACAD_MLINESTYLE
350
17
0
DICTIONARY
5
D
100
AcDbDictionary
0
DICTIONARY
5
1A
330
C
100
AcDbDictionary
0
DICTIONARY
5
17
100
AcDbDictionary
0
ENDSEC
0
EOF
