0
SECTION
2
HEADER
9
$INSUNITS
70
4
9
$ACADVER
1
AC1014
9
$HANDSEED
5
FFFF
0
ENDSEC
0
SECTION
2
TABLES
0
TABLE
2
VPORT
5
8
100
AcDbSymbolTable
0
ENDTAB
0
TABLE
2
LTYPE
5
5
100
AcDbSymbolTable
0
LTYPE
5
14
100
AcDbSymbolTableRecord
100
AcDbLinetypeTableRecord
2
BYBLOCK
70
0
0
LTYPE
5
15
100
AcDbSymbolTableRecord
100
AcDbLinetypeTableRecord
2
BYLAYER
70
0
0
ENDTAB
0
TABLE
2
LAYER
5
2
100
AcDbSymbolTable
70
2
0
LAYER
5
50
100
AcDbSymbolTableRecord
100
AcDbLayerTableRecord
2
0
70
0
6
CONTINUOUS
0
ENDTAB
0
TABLE
2
STYLE
5
3
100
AcDbSymbolTable
70
1
0
STYLE
5
11
100
AcDbSymbolTableRecord
100
AcDbTextStyleTableRecord
2
STANDARD
70
0
0
ENDTAB
0
TABLE
2
VIEW
5
6
100
AcDbSymbolTable
70
0
0
ENDTAB
0
TABLE
2
UCS
5
7
100
AcDbSymbolTable
70
0
0
ENDTAB
0
TABLE
2
APPID
5
9
100
AcDbSymbolTable
70
2
0
APPID
5
12
100
AcDbSymbolTableRecord
100
AcDbRegAppTableRecord
2
ACAD
70
0
0
ENDTAB
0
TABLE
2
DIMSTYLE
5
A
100
AcDbSymbolTable
70
1
0
ENDTAB
0
TABLE
2
BLOCK_RECORD
5
1
100
AcDbSymbolTable
70
1
0
BLOCK_RECORD
5
1F
100
AcDbSymbolTableRecord
100
AcDbBlockTableRecord
2
*MODEL_SPACE
0
BLOCK_RECORD
5
1B
100
AcDbSymbolTableRecord
100
AcDbBlockTableRecord
2
*PAPER_SPACE
0
ENDTAB
0
ENDSEC
0
SECTION
2
BLOCKS
0
BLOCK
5
20
100
AcDbEntity
100
AcDbBlockBegin
2
*MODEL_SPACE
0
ENDBLK
5
21
100
AcDbEntity
100
AcDbBlockEnd
0
BLOCK
5
1C
100
AcDbEntity
100
AcDbBlockBegin
2
*PAPER_SPACE
0
ENDBLK
5
1D
100
AcDbEntity
100
AcDbBlockEnd
0
ENDSEC
0
SECTION
2
ENTITIES
0
CIRCLE
5
100
100
AcDbEntity
8
0
100
AcDbCircle
10
13.999890693744067
20
28.106006505618019
30
1.7763568394002505e-14
40
1.0000000000031584
210
-1.4453524535447564e-39
220
-2.5808436461806826e-62
230
1
0
CIRCLE
5
101
100
AcDbEntity
8
0
100
AcDbCircle
10
13.999890693744067
20
38.106006505618019
30
0
40
1.000000000003169
210
-1.4453524535447574e-39
220
-2.5808436461806843e-62
230
1
0
ARC
5
102
100
AcDbEntity
8
0
100
AcDbCircle
10
330.99989069374402
20
26.106006505618073
30
4.1710524602168383e-44
40
2.0000000000000684
210
3.5460814683827262e-31
220
-8.2570501622196309e-45
230
1
100
AcDbArc
50
270.00000000000159
51
360
0
LINE
5
103
100
AcDbEntity
8
0
100
AcDbLine
10
332.99989069374413
20
26.106006505618002
30
-7.0921629441556009e-31
11
332.99989069374413
21
40.106006505618019
31
0
0
ARC
5
104
100
AcDbEntity
8
0
100
AcDbCircle
10
330.99989069374402
20
40.106006505617913
30
-2.6431992283326862e-42
40
2.0000000000000995
210
-1.7476302910264377e-29
220
5.0487097934144442e-29
230
1
100
AcDbArc
50
0
51
89.999999999995111
0
LINE
5
105
100
AcDbEntity
8
0
100
AcDbLine
10
330.99989069374419
20
42.106006505618012
30
2.3363629588708404e-43
11
-5.0001093062559221
21
42.106006505618012
31
-4.8608736402304613e-37
0
ARC
5
106
100
AcDbEntity
8
0
100
AcDbCircle
10
-5.0001093062559399
20
40.106006505618012
30
8.617985555597625e-43
40
2.0000000000000018
210
-3.6796378997982989e-28
220
2.4304738108577554e-37
230
1
100
AcDbArc
50
89.999999999999503
51
180
0
LINE
5
107
100
AcDbEntity
8
0
100
AcDbLine
10
-7.0001093062559505
20
40.106006505618019
30
-2.5952765260017287e-29
11
-7.0001093062559381
21
26.106006505618012
31
0
0
ARC
5
108
100
AcDbEntity
8
0
100
AcDbCircle
10
-5.0001093062559319
20
26.106006505618026
30
1.0789998175301091e-42
40
2.0000000000000071
210
-4.3994165789028597e-30
220
-5.0487097934145058e-29
230
1
100
AcDbArc
50
180
51
269.9999999999996
0
LINE
5
109
100
AcDbEntity
8
0
100
AcDbLine
10
-5.0001093062559452
20
24.106006505618019
30
-1.0097419586828944e-28
11
330.99989069374408
21
24.106006505618005
31
0
0
LINE
5
110
100
AcDbEntity
8
0
100
AcDbLine
10
297.26373916510704
20
35.11873754530373
30
0
11
297.26373916510704
21
37.716813756657054
31
0
0
LINE
5
111
100
AcDbEntity
8
0
100
AcDbLine
10
297.26373916510704
20
37.716813756657054
30
1.7763568394002505e-14
11
308.7360440105204
21
31.093275465932226
31
1.7763568394002505e-14
0
LINE
5
112
100
AcDbEntity
8
0
100
AcDbLine
10
308.7360440105204
20
28.495199254578903
30
0
11
297.26373916510704
21
35.11873754530373
31
0
0
LWPOLYLINE
5
113
100
AcDbEntity
8
0
100
AcDbPolyline
90
4
70
1
43
0.0
10
297.26373916510704
20
32.520661333950414
10
297.26373916510704
20
29.922585122597098
10
302.99989158781375
20
26.610815977234669
10
302.99989158781375
20
29.208892188587981
0
CIRCLE
5
114
100
AcDbEntity
8
0
100
AcDbCircle
10
82.999890693744078
20
33.106006505618012
30
-1.7763568394002505e-14
40
1.7000000000031372
210
-1.4453524535447582e-39
220
-2.580843646180686e-62
230
1
0
CIRCLE
5
115
100
AcDbEntity
8
0
100
AcDbCircle
10
122.99989069374408
20
33.106006505618012
30
-1.7763568394002505e-14
40
1.7000000000031417
210
-1.4453524535447546e-39
220
-2.5808436461806795e-62
230
1
0
CIRCLE
5
116
100
AcDbEntity
8
0
100
AcDbCircle
10
202.99989069374405
20
33.106006505618012
30
0
40
1.7000000000031501
210
-1.4453524535447569e-39
220
-2.5808436461806834e-62
230
1
0
CIRCLE
5
117
100
AcDbEntity
8
0
100
AcDbCircle
10
162.99989069374405
20
33.106006505618012
30
0
40
1.7000000000031457
210
-1.2621774484981544e-29
220
5.0487097934144767e-29
230
1
0
CIRCLE
5
118
100
AcDbEntity
8
0
100
AcDbCircle
10
42.999890693744078
20
33.106006505618012
30
-1.7763568394002505e-14
40
1.70000000000269
210
-1.4453524535447564e-39
220
-2.5808436461806826e-62
230
1
0
CIRCLE
5
119
100
AcDbEntity
8
0
100
AcDbCircle
10
282.99989069374408
20
33.106006505618012
30
-1.7763568394002505e-14
40
1.7000000000026561
210
-1.2621774484981541e-29
220
5.0487097934144756e-29
230
1
0
CIRCLE
5
120
100
AcDbEntity
8
0
100
AcDbCircle
10
29.999890693744078
20
33.106006505618019
30
-1.7763568394002505e-14
40
1.0000000000036415
210
-1.4453524535456558e-39
220
5.0487097934144756e-29
230
1
0
CIRCLE
5
121
100
AcDbEntity
8
0
100
AcDbCircle
10
242.99989069374405
20
33.106006505618012
30
0
40
1.7000000000036146
210
-1.4453524535447559e-39
220
-2.5808436461806817e-62
230
1
0
CIRCLE
5
122
100
AcDbEntity
8
0
100
AcDbCircle
10
17.999890693744089
20
33.106006505618019
30
-1.7763568394002505e-14
40
1.0000000000045952
210
-1.4453524535447582e-39
220
-2.5808456897364829e-62
230
1
0
CIRCLE
5
123
100
AcDbEntity
8
0
100
AcDbCircle
10
21.999890693744071
20
33.106006505618019
30
0
40
1.0000000000039979
210
-1.2621774484981544e-29
220
-2.2537653149237064e-52
230
1
0
LWPOLYLINE
5
124
100
AcDbEntity
8
0
100
AcDbPolyline
90
4
70
1
43
0.0
10
302.99989158781375
20
39.601197034001324
10
302.99989158781375
20
37.003120822648
10
308.73604401052046
20
33.691351677285574
10
308.73604401052046
20
36.28942788863889
0
CIRCLE
5
125
100
AcDbEntity
8
0
100
AcDbCircle
10
2.9998906937440757
20
33.106006505618012
30
0
40
1.7000000000040159
210
-1.4453524535456579e-39
220
5.0487097934144756e-29
230
1
0
CIRCLE
5
126
100
AcDbEntity
8
0
100
AcDbCircle
10
322.99989069374413
20
33.106006505618012
30
-1.7763568394002505e-14
40
1.7000000000039905
210
-1.2621774484981541e-29
220
-2.253765314923706e-52
230
1
0
LINE
5
127
100
AcDbEntity
8
0
100
AcDbLine
10
308.7360440105204
20
31.093275465932226
30
1.7763568394002505e-14
11
308.7360440105204
21
28.495199254578903
31
0
0
ENDSEC
0
SECTION
2
OBJECTS
0
DICTIONARY
5
C
100
AcDbDictionary
3
ACAD_GROUP
350
D
3
ACAD_MLINESTYLE
350
17
0
DICTIONARY
5
D
100
AcDbDictionary
0
DICTIONARY
5
1A
330
C
100
AcDbDictionary
0
DICTIONARY
5
17
100
AcDbDictionary
0
ENDSEC
0
EOF
