0
SECTION
2
HEADER
9
$INSUNITS
70
4
9
$ACADVER
1
AC1014
9
$HANDSEED
5
FFFF
0
ENDSEC
0
SECTION
2
TABLES
0
TABLE
2
VPORT
5
8
100
AcDbSymbolTable
0
ENDTAB
0
TABLE
2
LTYPE
5
5
100
AcDbSymbolTable
0
LTYPE
5
14
100
AcDbSymbolTableRecord
100
AcDbLinetypeTableRecord
2
BYBLOCK
70
0
0
LTYPE
5
15
100
AcDbSymbolTableRecord
100
AcDbLinetypeTableRecord
2
BYLAYER
70
0
0
ENDTAB
0
TABLE
2
LAYER
5
2
100
AcDbSymbolTable
70
2
0
LAYER
5
50
100
AcDbSymbolTableRecord
100
AcDbLayerTableRecord
2
0
70
0
6
CONTINUOUS
0
ENDTAB
0
TABLE
2
STYLE
5
3
100
AcDbSymbolTable
70
1
0
STYLE
5
11
100
AcDbSymbolTableRecord
100
AcDbTextStyleTableRecord
2
STANDARD
70
0
0
ENDTAB
0
TABLE
2
VIEW
5
6
100
AcDbSymbolTable
70
0
0
ENDTAB
0
TABLE
2
UCS
5
7
100
AcDbSymbolTable
70
0
0
ENDTAB
0
TABLE
2
APPID
5
9
100
AcDbSymbolTable
70
2
0
APPID
5
12
100
AcDbSymbolTableRecord
100
AcDbRegAppTableRecord
2
ACAD
70
0
0
ENDTAB
0
TABLE
2
DIMSTYLE
5
A
100
AcDbSymbolTable
70
1
0
ENDTAB
0
TABLE
2
BLOCK_RECORD
5
1
100
AcDbSymbolTable
70
1
0
BLOCK_RECORD
5
1F
100
AcDbSymbolTableRecord
100
AcDbBlockTableRecord
2
*MODEL_SPACE
0
BLOCK_RECORD
5
1B
100
AcDbSymbolTableRecord
100
AcDbBlockTableRecord
2
*PAPER_SPACE
0
ENDTAB
0
ENDSEC
0
SECTION
2
BLOCKS
0
BLOCK
5
20
100
AcDbEntity
100
AcDbBlockBegin
2
*MODEL_SPACE
0
ENDBLK
5
21
100
AcDbEntity
100
AcDbBlockEnd
0
BLOCK
5
1C
100
AcDbEntity
100
AcDbBlockBegin
2
*PAPER_SPACE
0
ENDBLK
5
1D
100
AcDbEntity
100
AcDbBlockEnd
0
ENDSEC
0
SECTION
2
ENTITIES
0
CIRCLE
5
100
100
AcDbEntity
8
0
100
AcDbCircle
10
-11.000109306255933
20
28.106006505618019
30
1.7763568394002505e-14
40
1.0000000000031584
210
-1.4453524535447564e-39
220
-2.5808436461806826e-62
230
1
0
CIRCLE
5
101
100
AcDbEntity
8
0
100
AcDbCircle
10
-11.000109306255933
20
38.106006505618019
30
0
40
1.000000000003169
210
-1.4453524535447574e-39
220
-2.5808436461806843e-62
230
1
0
ARC
5
102
100
AcDbEntity
8
0
100
AcDbCircle
10
355.99989069374408
20
26.106006505617998
30
-1.642146637880645e-44
40
2.0000000000000018
210
3.5460814683827262e-31
220
-4.3874789494610494e-45
230
1
100
AcDbArc
50
-90.000000000001634
51
0
0
LINE
5
103
100
AcDbEntity
8
0
100
AcDbLine
10
357.99989069374413
20
26.106006505617998
30
-7.0921629368014946e-31
11
357.99989069374408
21
40.106006505618019
31
0
0
ARC
5
104
100
AcDbEntity
8
0
100
AcDbCircle
10
355.99989069374402
20
40.106006505617998
30
7.4268818609215305e-43
40
2.0000000000000284
210
-1.2976382644440165e-29
220
5.048709793414466e-29
230
1
100
AcDbArc
50
0
51
90
0
LINE
5
105
100
AcDbEntity
8
0
100
AcDbLine
10
355.99989069374402
20
42.106006505618026
30
-1.0097419586829023e-28
11
-30.000109306255993
21
42.106006505618012
31
-5.5851701826445359e-37
0
ARC
5
106
100
AcDbEntity
8
0
100
AcDbCircle
10
-30.000109306255929
20
40.106006505618012
30
1.7763568394002508e-14
40
2.0000000000000018
210
-2.8907769945772884e-28
220
8.881784197001246e-15
230
1
100
AcDbArc
50
90.000000000001833
51
180
0
LINE
5
107
100
AcDbEntity
8
0
100
AcDbLine
10
-32.000109306255943
20
40.106006505618019
30
1.7763568394002479e-14
11
-32.000109306255936
21
26.106006505618016
31
0
0
ARC
5
108
100
AcDbEntity
8
0
100
AcDbCircle
10
-30.000109306255926
20
26.106006505618016
30
1.3487497719126364e-43
40
2.0000000000000062
210
-9.7185387814521374e-30
220
-5.0487097934145092e-29
230
1
100
AcDbArc
50
180
51
269.9999999999996
0
LINE
5
109
100
AcDbEntity
8
0
100
AcDbLine
10
-30.00010930625594
20
24.106006505618009
30
2.0065823937891514e-44
11
355.99989069374402
21
24.106006505617998
31
0
0
LWPOLYLINE
5
110
100
AcDbEntity
8
0
100
AcDbPolyline
90
4
70
1
43
0.0
10
322.99989069374396
20
37.003120822648022
10
328.73604311645067
20
33.691351677285589
10
328.73604311645067
20
36.289427888638912
10
322.99989069374396
20
39.601197034001345
0
LINE
5
111
100
AcDbEntity
8
0
100
AcDbLine
10
317.26373827103731
20
35.118737545303745
30
0
11
317.26373827103731
21
37.716813756657075
31
0
0
LINE
5
112
100
AcDbEntity
8
0
100
AcDbLine
10
317.26373827103731
20
37.716813756657075
30
1.7763568394002505e-14
11
328.73604311645067
21
31.093275465932244
31
1.7763568394002505e-14
0
LINE
5
113
100
AcDbEntity
8
0
100
AcDbLine
10
328.73604311645067
20
31.093275465932244
30
1.7763568394002505e-14
11
328.73604311645062
21
28.495199254578921
31
0
0
LINE
5
114
100
AcDbEntity
8
0
100
AcDbLine
10
328.73604311645062
20
28.495199254578921
30
0
11
317.26373827103725
21
35.118737545303745
31
0
0
LWPOLYLINE
5
115
100
AcDbEntity
8
0
100
AcDbPolyline
90
4
70
1
43
0.0
10
317.26373827103731
20
32.520661333950436
10
317.26373827103731
20
29.922585122597116
10
322.99989069374396
20
26.610815977234687
10
322.99989069374408
20
29.208892188587999
0
CIRCLE
5
116
100
AcDbEntity
8
0
100
AcDbCircle
10
102.99989069374408
20
33.106006505618012
30
-1.7763568394002505e-14
40
1.7000000000031372
210
-1.4453524535447582e-39
220
-2.580843646180686e-62
230
1
0
CIRCLE
5
117
100
AcDbEntity
8
0
100
AcDbCircle
10
142.99989069374408
20
33.106006505618012
30
0
40
1.7000000000031417
210
-1.4453524535447546e-39
220
-2.5808436461806795e-62
230
1
0
CIRCLE
5
118
100
AcDbEntity
8
0
100
AcDbCircle
10
222.99989069374405
20
33.106006505618012
30
0
40
1.7000000000031501
210
-1.4453524535447569e-39
220
-2.5808436461806834e-62
230
1
0
CIRCLE
5
119
100
AcDbEntity
8
0
100
AcDbCircle
10
182.99989069374405
20
33.106006505618012
30
0
40
1.7000000000031457
210
-1.2621774484981544e-29
220
5.0487097934144767e-29
230
1
0
CIRCLE
5
120
100
AcDbEntity
8
0
100
AcDbCircle
10
62.999890693744085
20
33.106006505618012
30
-1.7763568394002505e-14
40
1.70000000000269
210
-1.4453524535447564e-39
220
-2.5808436461806826e-62
230
1
0
CIRCLE
5
121
100
AcDbEntity
8
0
100
AcDbCircle
10
302.99989069374408
20
33.106006505618012
30
-1.7763568394002505e-14
40
1.7000000000026561
210
-1.2621774484981541e-29
220
5.0487097934144756e-29
230
1
0
CIRCLE
5
122
100
AcDbEntity
8
0
100
AcDbCircle
10
-3.0001093062559265
20
33.106006505618019
30
-1.7763568394002505e-14
40
1.0000000000036171
210
-1.4453524535447572e-39
220
-2.5808436461806843e-62
230
1
0
CIRCLE
5
123
100
AcDbEntity
8
0
100
AcDbCircle
10
342.99989069374408
20
33.106006505618012
30
-1.7763568394002505e-14
40
1.7000000000036064
210
-1.2621774484981541e-29
220
-2.2537635303554951e-52
230
1
0
CIRCLE
5
124
100
AcDbEntity
8
0
100
AcDbCircle
10
4.9998906937440806
20
33.106006505618019
30
-1.7763568394002505e-14
40
1.0000000000036415
210
-1.4453524535456558e-39
220
5.0487097934144756e-29
230
1
0
CIRCLE
5
125
100
AcDbEntity
8
0
100
AcDbCircle
10
-17.000109306255919
20
33.106006505618012
30
0
40
1.7000000000036146
210
-1.4453524535447559e-39
220
-2.5808436461806817e-62
230
1
0
CIRCLE
5
126
100
AcDbEntity
8
0
100
AcDbCircle
10
22.999890693744081
20
33.106006505618012
30
-1.7763568394002505e-14
40
1.7000000000036188
210
-1.4453524535447572e-39
220
-2.5808436461806843e-62
230
1
0
CIRCLE
5
127
100
AcDbEntity
8
0
100
AcDbCircle
10
262.99989069374408
20
33.106006505618012
30
0
40
1.7000000000036146
210
-1.4453524535447559e-39
220
-2.5808436461806817e-62
230
1
0
CIRCLE
5
128
100
AcDbEntity
8
0
100
AcDbCircle
10
-7.0001093062559105
20
33.106006505618019
30
-1.7763568394002505e-14
40
1.0000000000045952
210
-1.4453524535447582e-39
220
-2.5808456897364829e-62
230
1
0
ENDSEC
0
SECTION
2
OBJECTS
0
DICTIONARY
5
C
100
AcDbDictionary
3
ACAD_GROUP
350
D
3
ACAD_MLINESTYLE
350
17
0
DICTIONARY
5
D
100
AcDbDictionary
0
DICTIONARY
5
1A
330
C
100
AcDbDictionary
0
DICTIONARY
5
17
100
AcDbDictionary
0
ENDSEC
0
EOF
