0
SECTION
2
HEADER
9
$INSUNITS
70
4
9
$ACADVER
1
AC1014
9
$HANDSEED
5
FFFF
0
ENDSEC
0
SECTION
2
TABLES
0
TABLE
2
VPORT
5
8
100
AcDbSymbolTable
0
ENDTAB
0
TABLE
2
LTYPE
5
5
100
AcDbSymbolTable
0
LTYPE
5
14
100
AcDbSymbolTableRecord
100
AcDbLinetypeTableRecord
2
BYBLOCK
70
0
0
LTYPE
5
15
100
AcDbSymbolTableRecord
100
AcDbLinetypeTableRecord
2
BYLAYER
70
0
0
ENDTAB
0
TABLE
2
LAYER
5
2
100
AcDbSymbolTable
70
2
0
LAYER
5
50
100
AcDbSymbolTableRecord
100
AcDbLayerTableRecord
2
0
70
0
6
CONTINUOUS
0
ENDTAB
0
TABLE
2
STYLE
5
3
100
AcDbSymbolTable
70
1
0
STYLE
5
11
100
AcDbSymbolTableRecord
100
AcDbTextStyleTableRecord
2
STANDARD
70
0
0
ENDTAB
0
TABLE
2
VIEW
5
6
100
AcDbSymbolTable
70
0
0
ENDTAB
0
TABLE
2
UCS
5
7
100
AcDbSymbolTable
70
0
0
ENDTAB
0
TABLE
2
APPID
5
9
100
AcDbSymbolTable
70
2
0
APPID
5
12
100
AcDbSymbolTableRecord
100
AcDbRegAppTableRecord
2
ACAD
70
0
0
ENDTAB
0
TABLE
2
DIMSTYLE
5
A
100
AcDbSymbolTable
70
1
0
ENDTAB
0
TABLE
2
BLOCK_RECORD
5
1
100
AcDbSymbolTable
70
1
0
BLOCK_RECORD
5
1F
100
AcDbSymbolTableRecord
100
AcDbBlockTableRecord
2
*MODEL_SPACE
0
BLOCK_RECORD
5
1B
100
AcDbSymbolTableRecord
100
AcDbBlockTableRecord
2
*PAPER_SPACE
0
ENDTAB
0
ENDSEC
0
SECTION
2
BLOCKS
0
BLOCK
5
20
100
AcDbEntity
100
AcDbBlockBegin
2
*MODEL_SPACE
0
ENDBLK
5
21
100
AcDbEntity
100
AcDbBlockEnd
0
BLOCK
5
1C
100
AcDbEntity
100
AcDbBlockBegin
2
*PAPER_SPACE
0
ENDBLK
5
1D
100
AcDbEntity
100
AcDbBlockEnd
0
ENDSEC
0
SECTION
2
ENTITIES
0
LWPOLYLINE
5
100
100
AcDbEntity
8
0
100
AcDbPolyline
90
4
70
1
43
0.0
10
-90.749914150502704
20
-115.24999999808473
42
-1.0000236613685167
10
-90.749991204652588
20
-111.24999999994662
10
-82.749999999798561
20
-111.24999999975597
42
-1.009287147855735
10
-82.786974516401443
20
-115.24965819182752
0
LINE
5
101
100
AcDbEntity
8
0
100
AcDbLine
10
-82.750000172342325
20
-90.250000000084057
30
0
11
-90.749991204874746
21
-90.250000000062457
31
0
0
ARC
5
102
100
AcDbEntity
8
0
100
AcDbCircle
10
-90.750000000019369
20
-88.250000000081812
30
0
40
1.9999999999999889
210
0
220
-0
230
1
100
AcDbArc
50
89.997540600934514
51
270.0002519625009
0
LINE
5
103
100
AcDbEntity
8
0
100
AcDbLine
10
-90.749914150796769
20
-86.250000001924349
30
0
11
-82.786974516708156
21
-86.250341808013303
31
0
0
ARC
5
104
100
AcDbEntity
8
0
100
AcDbCircle
10
-82.75000000001998
20
-88.250000000084043
30
0
40
2.0000000000000004
210
0
220
0
230
1
100
AcDbArc
50
-90.00000493667153
51
91.059302224888498
0
CIRCLE
5
105
100
AcDbEntity
8
0
100
AcDbCircle
10
85.35000000003086
20
-191.10000000014995
30
0
40
2.5
210
0
220
-0
230
1
0
CIRCLE
5
106
100
AcDbEntity
8
0
100
AcDbCircle
10
70.349999999996299
20
191.10000000016086
30
0
40
2.5
210
0
220
-0
230
1
0
LINE
5
107
100
AcDbEntity
8
0
100
AcDbLine
10
-82.749999999798547
20
111.24999999974952
30
0
11
-90.749991204652588
21
111.24999999993605
31
0
0
ARC
5
108
100
AcDbEntity
8
0
100
AcDbCircle
10
-90.749999999754948
20
113.249999999927
30
0
40
1.9999999999999909
210
0
220
-0
230
1
100
AcDbArc
50
89.997540599728652
51
270.00025196102717
0
LINE
5
109
100
AcDbEntity
8
0
100
AcDbLine
10
-90.749914150490255
20
115.24999999808446
30
0
11
-82.786974516401443
21
115.24965819182742
31
0
0
ARC
5
110
100
AcDbEntity
8
0
100
AcDbCircle
10
-82.749999999755559
20
113.249999999756
30
0
40
1.9999999999999929
210
0
220
0
230
1
100
AcDbArc
50
-90.000000001231498
51
91.059302223676767
0
CIRCLE
5
111
100
AcDbEntity
8
0
100
AcDbCircle
10
85.349999999996285
20
191.10000000016589
30
0
40
2.5
210
0
220
-0
230
1
0
CIRCLE
5
112
100
AcDbEntity
8
0
100
AcDbCircle
10
70.350000000138266
20
-191.1000000001641
30
0
40
2.5
210
0
220
-0
230
1
0
LWPOLYLINE
5
113
100
AcDbEntity
8
0
100
AcDbPolyline
90
4
70
1
43
0.0
10
-82.750000000020606
20
90.250000000083986
42
-1.0092871478557377
10
-82.786974516708156
20
86.250341808013246
10
-90.749914150800279
20
86.25000000192432
42
-1.0000236613708628
10
-90.749991204874746
20
90.250000000062471
0
LWPOLYLINE
5
114
100
AcDbEntity
8
0
100
AcDbPolyline
90
4
70
1
43
0.0
10
-95.750000000003652
20
201.5000000000521
10
95.749999999996334
20
201.50000000005207
10
95.749999999954071
20
-201.4999999999479
10
-95.750000000003212
20
-201.49999999994787
0
ENDSEC
0
SECTION
2
OBJECTS
0
DICTIONARY
5
C
100
AcDbDictionary
3
ACAD_GROUP
350
D
3
ACAD_MLINESTYLE
350
17
0
DICTIONARY
5
D
100
AcDbDictionary
0
DICTIONARY
5
1A
330
C
100
AcDbDictionary
0
DICTIONARY
5
17
100
AcDbDictionary
0
ENDSEC
0
EOF
