0
SECTION
2
HEADER
9
$INSUNITS
70
4
9
$ACADVER
1
AC1014
9
$HANDSEED
5
FFFF
0
ENDSEC
0
SECTION
2
TABLES
0
TABLE
2
VPORT
5
8
100
AcDbSymbolTable
0
ENDTAB
0
TABLE
2
LTYPE
5
5
100
AcDbSymbolTable
0
LTYPE
5
14
100
AcDbSymbolTableRecord
100
AcDbLinetypeTableRecord
2
BYBLOCK
70
0
0
LTYPE
5
15
100
AcDbSymbolTableRecord
100
AcDbLinetypeTableRecord
2
BYLAYER
70
0
0
ENDTAB
0
TABLE
2
LAYER
5
2
100
AcDbSymbolTable
70
2
0
LAYER
5
50
100
AcDbSymbolTableRecord
100
AcDbLayerTableRecord
2
0
70
0
6
CONTINUOUS
0
ENDTAB
0
TABLE
2
STYLE
5
3
100
AcDbSymbolTable
70
1
0
STYLE
5
11
100
AcDbSymbolTableRecord
100
AcDbTextStyleTableRecord
2
STANDARD
70
0
0
ENDTAB
0
TABLE
2
VIEW
5
6
100
AcDbSymbolTable
70
0
0
ENDTAB
0
TABLE
2
UCS
5
7
100
AcDbSymbolTable
70
0
0
ENDTAB
0
TABLE
2
APPID
5
9
100
AcDbSymbolTable
70
2
0
APPID
5
12
100
AcDbSymbolTableRecord
100
AcDbRegAppTableRecord
2
ACAD
70
0
0
ENDTAB
0
TABLE
2
DIMSTYLE
5
A
100
AcDbSymbolTable
70
1
0
ENDTAB
0
TABLE
2
BLOCK_RECORD
5
1
100
AcDbSymbolTable
70
1
0
BLOCK_RECORD
5
1F
100
AcDbSymbolTableRecord
100
AcDbBlockTableRecord
2
*MODEL_SPACE
0
BLOCK_RECORD
5
1B
100
AcDbSymbolTableRecord
100
AcDbBlockTableRecord
2
*PAPER_SPACE
0
ENDTAB
0
ENDSEC
0
SECTION
2
BLOCKS
0
BLOCK
5
20
100
AcDbEntity
100
AcDbBlockBegin
2
*MODEL_SPACE
0
ENDBLK
5
21
100
AcDbEntity
100
AcDbBlockEnd
0
BLOCK
5
1C
100
AcDbEntity
100
AcDbBlockBegin
2
*PAPER_SPACE
0
ENDBLK
5
1D
100
AcDbEntity
100
AcDbBlockEnd
0
ENDSEC
0
SECTION
2
ENTITIES
0
LWPOLYLINE
5
100
100
AcDbEntity
8
0
100
AcDbPolyline
90
4
70
1
43
0.0
10
-103.24999679577233
20
-127.74999999989004
42
-0.9999997531169732
10
-103.25000419121038
20
-123.74999999989696
10
-95.249999999767766
20
-123.74999999972346
42
-1.0017908085775771
10
-95.257156808556658
20
-127.74998719470432
0
LINE
5
101
100
AcDbEntity
8
0
100
AcDbLine
10
-95.249999999992554
20
-102.75000000004921
30
0
11
-103.25000419143518
21
-102.75000000004917
31
0
0
ARC
5
102
100
AcDbEntity
8
0
100
AcDbCircle
10
-103.24999999999265
20
-100.75000000005275
30
0
40
2.0000000000000013
210
0
220
-0
230
1
100
AcDbArc
50
89.999908208696425
51
270.00006250333485
0
LINE
5
103
100
AcDbEntity
8
0
100
AcDbLine
10
-103.24999679587171
20
-98.750000000055309
30
0
11
-95.257156808867052
21
-98.750012805068522
31
0
0
ARC
5
104
100
AcDbEntity
8
0
100
AcDbCircle
10
-95.249999999992554
20
-100.75000000004921
30
0
40
1.9999999999999929
210
0
220
0
230
1
100
AcDbArc
50
-90
51
90.205027909209846
0
CIRCLE
5
105
100
AcDbEntity
8
0
100
AcDbCircle
10
97.850000000015939
20
-216.10000000012789
30
0
40
2.5
210
0
220
-0
230
1
0
CIRCLE
5
106
100
AcDbEntity
8
0
100
AcDbCircle
10
82.850000000012358
20
216.10000000012522
30
0
40
2.5
210
0
220
-0
230
1
0
LINE
5
107
100
AcDbEntity
8
0
100
AcDbLine
10
-95.249999999767738
20
123.74999999972556
30
0
11
-103.25000419121037
21
123.74999999989728
31
0
0
ARC
5
108
100
AcDbEntity
8
0
100
AcDbCircle
10
-103.24999999972506
20
125.74999999989258
30
0
40
2.0000000000000013
210
0
220
-0
230
1
100
AcDbArc
50
89.999881823046039
51
269.99988034426661
0
LINE
5
109
100
AcDbEntity
8
0
100
AcDbLine
10
-103.24999587457117
20
127.74999999988833
30
0
11
-95.257156808556658
21
127.74998719470506
31
0
0
ARC
5
110
100
AcDbEntity
8
0
100
AcDbCircle
10
-95.249999999724935
20
125.74999999972351
30
0
40
1.9999999999999929
210
0
220
0
230
1
100
AcDbArc
50
-90.000000001225402
51
90.205027907984359
0
CIRCLE
5
111
100
AcDbEntity
8
0
100
AcDbCircle
10
97.850000000012358
20
216.10000000012792
30
0
40
2.5
210
0
220
-0
230
1
0
CIRCLE
5
112
100
AcDbEntity
8
0
100
AcDbCircle
10
82.850000000004343
20
-216.10000000012693
30
0
40
2.5
210
0
220
-0
230
1
0
LWPOLYLINE
5
113
100
AcDbEntity
8
0
100
AcDbPolyline
90
4
70
1
43
0.0
10
-95.249999999992653
20
102.75000000004921
42
-1.0017908085776237
10
-95.257156808867052
20
98.750012805068522
10
-103.24999679563271
20
98.750000000055294
42
-0.99999975322942269
10
-103.25000419143518
20
102.75000000004832
0
LWPOLYLINE
5
114
100
AcDbEntity
8
0
100
AcDbPolyline
90
4
70
1
43
0.0
10
-108.24999999998788
20
226.50000000002561
10
108.25000000001214
20
226.50000000002552
10
108.24999999996351
20
-226.49999999997459
10
-108.24999999998745
20
-226.49999999997451
0
ENDSEC
0
SECTION
2
OBJECTS
0
DICTIONARY
5
C
100
AcDbDictionary
3
ACAD_GROUP
350
D
3
ACAD_MLINESTYLE
350
17
0
DICTIONARY
5
D
100
AcDbDictionary
0
DICTIONARY
5
1A
330
C
100
AcDbDictionary
0
DICTIONARY
5
17
100
AcDbDictionary
0
ENDSEC
0
EOF
