0
SECTION
2
HEADER
9
$INSUNITS
70
4
9
$ACADVER
1
AC1014
9
$HANDSEED
5
FFFF
0
ENDSEC
0
SECTION
2
TABLES
0
TABLE
2
VPORT
5
8
100
AcDbSymbolTable
0
ENDTAB
0
TABLE
2
LTYPE
5
5
100
AcDbSymbolTable
0
LTYPE
5
14
100
AcDbSymbolTableRecord
100
AcDbLinetypeTableRecord
2
BYBLOCK
70
0
0
LTYPE
5
15
100
AcDbSymbolTableRecord
100
AcDbLinetypeTableRecord
2
BYLAYER
70
0
0
ENDTAB
0
TABLE
2
LAYER
5
2
100
AcDbSymbolTable
70
2
0
LAYER
5
50
100
AcDbSymbolTableRecord
100
AcDbLayerTableRecord
2
0
70
0
6
CONTINUOUS
0
ENDTAB
0
TABLE
2
STYLE
5
3
100
AcDbSymbolTable
70
1
0
STYLE
5
11
100
AcDbSymbolTableRecord
100
AcDbTextStyleTableRecord
2
STANDARD
70
0
0
ENDTAB
0
TABLE
2
VIEW
5
6
100
AcDbSymbolTable
70
0
0
ENDTAB
0
TABLE
2
UCS
5
7
100
AcDbSymbolTable
70
0
0
ENDTAB
0
TABLE
2
APPID
5
9
100
AcDbSymbolTable
70
2
0
APPID
5
12
100
AcDbSymbolTableRecord
100
AcDbRegAppTableRecord
2
ACAD
70
0
0
ENDTAB
0
TABLE
2
DIMSTYLE
5
A
100
AcDbSymbolTable
70
1
0
ENDTAB
0
TABLE
2
BLOCK_RECORD
5
1
100
AcDbSymbolTable
70
1
0
BLOCK_RECORD
5
1F
100
AcDbSymbolTableRecord
100
AcDbBlockTableRecord
2
*MODEL_SPACE
0
BLOCK_RECORD
5
1B
100
AcDbSymbolTableRecord
100
AcDbBlockTableRecord
2
*PAPER_SPACE
0
ENDTAB
0
ENDSEC
0
SECTION
2
BLOCKS
0
BLOCK
5
20
100
AcDbEntity
100
AcDbBlockBegin
2
*MODEL_SPACE
0
ENDBLK
5
21
100
AcDbEntity
100
AcDbBlockEnd
0
BLOCK
5
1C
100
AcDbEntity
100
AcDbBlockBegin
2
*PAPER_SPACE
0
ENDBLK
5
1D
100
AcDbEntity
100
AcDbBlockEnd
0
ENDSEC
0
SECTION
2
ENTITIES
0
LWPOLYLINE
5
100
100
AcDbEntity
8
0
100
AcDbPolyline
90
4
70
1
43
0.0
10
-115.74998374006077
20
-140.25000000052006
42
-1.0000026024752977
10
-115.75000584963843
20
-136.25000000059475
10
-107.74999999978553
20
-136.25000000051858
42
-1.0040364189052926
10
-107.76611295958185
20
-140.24993509259696
0
LINE
5
101
100
AcDbEntity
8
0
100
AcDbLine
10
-107.74999999978547
20
-115.25000000051861
30
0
11
-115.75000584963843
21
-115.25000000044251
31
0
0
ARC
5
102
100
AcDbEntity
8
0
100
AcDbCircle
10
-115.74999999978573
20
-113.25000000045107
30
0
40
1.9999999999999898
210
0
220
-0
230
1
100
AcDbArc
50
89.999534192101677
51
269.9998324134159
0
LINE
5
103
100
AcDbEntity
8
0
100
AcDbLine
10
-115.74998374002271
20
-111.25000000051716
30
0
11
-107.76611295964237
21
-111.25006490844072
31
0
0
ARC
5
104
100
AcDbEntity
8
0
100
AcDbCircle
10
-107.74999999978547
20
-113.25000000051858
30
0
40
2.0000000000000107
210
0
220
0
230
1
100
AcDbArc
50
-90
51
90.46160729130446
0
CIRCLE
5
105
100
AcDbEntity
8
0
100
AcDbCircle
10
110.35000000021653
20
-241.10000000032383
30
0
40
2.5
210
0
220
-0
230
1
0
CIRCLE
5
106
100
AcDbEntity
8
0
100
AcDbCircle
10
95.35000000011496
20
241.10000000030496
30
0
40
2.5
210
0
220
-0
230
1
0
LINE
5
107
100
AcDbEntity
8
0
100
AcDbLine
10
-107.7499999997855
20
136.25000000051062
30
0
11
-115.75000584963843
21
136.25000000052708
31
0
0
ARC
5
108
100
AcDbEntity
8
0
100
AcDbCircle
10
-115.74999999979342
20
138.25000000058617
30
0
40
2.0000000000000075
210
0
220
-0
230
1
100
AcDbArc
50
89.99953419188509
51
269.99983241428509
0
LINE
5
109
100
AcDbEntity
8
0
100
AcDbLine
10
-115.74998374002284
20
140.25000000052009
30
0
11
-107.76611295957747
21
140.24993509259696
31
0
0
ARC
5
110
100
AcDbEntity
8
0
100
AcDbCircle
10
-107.74999999978547
20
138.25000000051855
30
0
40
1.9999999999999929
210
0
220
0
230
1
100
AcDbArc
50
-90.000000000001634
51
90.461607289445126
0
CIRCLE
5
111
100
AcDbEntity
8
0
100
AcDbCircle
10
110.35000000011499
20
241.10000000037905
30
0
40
2.5
210
0
220
-0
230
1
0
CIRCLE
5
112
100
AcDbEntity
8
0
100
AcDbCircle
10
95.350000000183257
20
-241.10000000026272
30
0
40
2.5
210
0
220
-0
230
1
0
LWPOLYLINE
5
113
100
AcDbEntity
8
0
100
AcDbPolyline
90
4
70
1
43
0.0
10
-107.7499999997855
20
115.25000000051858
42
-1.0040364189210176
10
-107.76611295964456
20
111.25006490844071
10
-115.74998374004534
20
111.25000000051716
42
-1.0000026024752977
10
-115.75000584963844
20
115.2500000004425
0
LWPOLYLINE
5
114
100
AcDbEntity
8
0
100
AcDbPolyline
90
4
70
1
43
0.0
10
-120.74999999978067
20
251.5000000004477
10
120.75000000021939
20
251.5000000004477
10
120.74999999935076
20
-251.49999999955236
10
-120.7499999997803
20
-251.49999999955236
0
ENDSEC
0
SECTION
2
OBJECTS
0
DICTIONARY
5
C
100
AcDbDictionary
3
ACAD_GROUP
350
D
3
ACAD_MLINESTYLE
350
17
0
DICTIONARY
5
D
100
AcDbDictionary
0
DICTIONARY
5
1A
330
C
100
AcDbDictionary
0
DICTIONARY
5
17
100
AcDbDictionary
0
ENDSEC
0
EOF
